PrimaNota.ru - самый крупный в мире бесплатный архив песенных текстов, аккордов, табулатур и нот


Bigwig - Sink Or Swin - таба, видео

Регистрация Запомнить меня
Войти через:  Facebook Google Twitter Vk Yandex Mail.ru

Bigwig - Sink Or Swin - таба, видео

Печатать
Просмотров: 143
Artist: Bigwig
Song:   Sink Or Swim
Album:  Invitation To Tragedy


-Intro
Guitar 01
1|--------------|
2|--------------|
3|--------------|
4|---7777-6-----|
5|---5555-4-----|
6|--------------|
Guitar 02
1|------------------------------|---------------------------------|
2|---14~14~14~14~14~14~14~14~---|---------------------------------|
3|------------------------------|---11~11~11~11/13-14~14~14~14~---|
4|------------------------------|---------------------------------|
5|------------------------------|---------------------------------|
6|------------------------------|---------------------------------|

-Solo 1 (Base  is the verse 2x)

1|------17------------------------------------------------|
2|---17-^17~---14-15-17-15-14-15-14-----------------------|
3|------------------------------------16-16^14------------|
4|---------------------------------------------16---------|
5|--------------------------------------------------------|
6|--------------------------------------------------------|

1|---------17---------------|---17d-16d-17d-16d-19d-16d-17d-16d-------------|
2|---17/19----1917-17~-----|-----------------------------------19^19~-------|
3|--------------------------|-----------------------------------------------|
4|--------------------------|-----------------------------------------------|
5|--------------------------|-----------------------------------------------|
6|--------------------------|-----------------------------------------------|

-Verse

1|------------------------------------------|
2|------------------------------------------|
3|------------------------------------------|
4|----------------------------44-4-7-6------|
5|---44-444-477-777-722-222-2-22-2-5-4------|
6|---22-022-055-055-000-000-0---------------|

1|-------------------------------------------------------------|
2|-------------------------------------------------------------|
3|-------------------------------------------------------------|
4|-------------------------------------------------------------|
5|---44-444-477-777-7-2-2-2222-2-2-2222-2-2-2222-2-2-2222------|
6|---22-022-055-055-0-0-0-0000-0-0-0000-0-0-0000-0-0-0000------|
                      ----------- Palm Mute -------------------|

-Pre-Chorus (Sink or swim...) Both guitars

1|------------------------------------------------------------------------------|
2|------------------------------------------------------------------------------|
3|------------------------------------------------------------------------------|
4|---6-666666-6-666666-6-666666-4--6--7--6-666666-6-666666-9--7--6--4--6--7-----|
5|---4-444444-4-444444-4-444444-2--4--5--4-444444-4-444444-7--5--4--2--4--5-----|
6|------------------------------------------------------------------------------|  (Repeat)
       pppp/   pppp/   pppp/            pppp/   pppp/

-Chorus (Whoa...)

1|----------------------------------------|
2|----------------------------------------|
3|----------------------------------7-----|
4|-------66------99--------66------x9-----|
5|---44--44--77--77----44--44--77--x7-----|
6|---22------55--------22------55---------|  (Repeat)

-Bridge

1|----------------------------------------------|----------------------------------|
2|----------------------------------------------|----------------------------------|
3|---11----------9--11--12--11---11---6---6-----|----------------------------------|
4|---x-----------x--x----x--x----x----x----x----|---------7-------7-------7-9999---|
5|---9-----------7--9---10--9----9----4---4-----|---4-444-5-4-444-5-4-444-5-7777---|
6|----------------------------------------------|---2-222---2-222---2-222----------|
                                                       ------- Palm Mute ----------|

-Post-Chorus (All the times...) Both guitars

1|------------------------------------------|
2|------------------------------------------|
3|------------------------------------------|
4|---------7-7-6---------------------x------|
5|---4-4-4-5-5-4-7-7-7-6-6-6-7-7-9-9-x------|
6|---2-2-2-------5-5-5-4-4-4-5-5-7-7-x------|  (Repeat 4x)

And Now
  >Guitar 01
1|-------------------------------------------------------------------------------------|
2|-------------------------------------------------------------------------------------|
3|---11--12-12-11-11--14-14-12-12-11-11-9-11--12-12-11-11------------------------------|
4|---x---x--x--x--x---x--x--x--x--x--x--x-x---x--x--x--x----(4)(4)(4)(4)(4)(4)---------|
5|---9---10-10-9--9---12-12-10-10-9--9--7-9---10-10-9--9----(4)(4)(4)(4)(4)(4)---------|
6|----------------------------------------------------------(2)(2)(2)(2)(2)(2)---------|

  >Guitar 02
1|-------------------------------------------------------------------------------------|
2|-------------------------------------------------------------------------------------|
3|-------------------------------------------------------------------------------------|
4|---4----5--5/-4--4---7-7-7-4\5-5--4-2\4--5-5/4-4-----------(4)(4)(4)(4)(4)(4)--------|
5|---4----5--5/-4--4---7-7-7-4\5-5--4-2\4--5-5/4-4-----------(4)(4)(4)(4)(4)(4)--------|
6|---2----3--3/-2--2---5-5-5-2\3-3--2-0\2--3-3/2-2-----------(2)(2)(2)(2)(2)(2)--------|


-Bridge 2
                                                          2x for guitar01   Just Guitar 02
1|---------------------------------------|--------------------------|
2|---------------------------------------|--7-7--7-7--7-7--7-7--7-7-|
3|---------------------------------------|--x-x--x-x--x-x--x-x--x-x-|
4|---------------------------------------|--4-4--4-4--4-4--4-4--4-4-|
5|---4-4-4-4-4-4-4-4-4-4-4-4-4-4-4-4-----|--------------------------|
6|---2-2-0-2-2-0-2-2-0-2-2-0-2-0-2-0--------------------------------|  (Repeat)

-Solo 2

1|----------------------------------------------------------------|
2|-------------------------------------------------7~-7-----------|
3|666-777-666-444--------------666-777-666-444--------------------|
4|----------------666-777-666~-----------------666----------------|
5|----------------------------------------------------------------|
6|----------------------------------------------------------------|

- Solo 1
Verse/chorus

Before bridge 02

e|------------------------|
|B|---------Harmonic------|
|G|---------[5]-----------|
|D|---------[5]-----------|
|A|2-44-2-4---------------|
|E|0-22-0-2---------------|

Bridge 2
                                                        2x for guitar01   Just Guitar 02
1|---------------------------------------|-------------------------------|
2|---------------------------------------|--7-7--7-7--7-7--7-7--7-7--12--|
3|---------------------------------------|--x-x--x-x--x-x--x-x--x-x--x---|
4|---------------------------------------|--4-4--4-4--4-4--4-4--4-4--7---|
5|---4-4-4-4-4-4-4-4-4-4-4-4-4-4-4-4-----|-------------------------------|
6|---2-2-0-2-2-0-2-2-0-2-2-0-2-0-2-0-------------------------------------|
(Repeat) The other guitar finish in A5

Thanks!!
email: lukauhc@yahoo.com.br
Добавлено: 09.07.2012
Другие материалы по этой песне:
  • Аккорды и текст

Страница создана 09.07.2012
http://primanota.ru/bigwig/sink-or-swin-chords.htm
Привет, Гость.
Предлагаем пройти революционный курс по гитаре.
Подарок от PrimaNota.Ru, забирай!