PrimaNota.ru - самый крупный в мире бесплатный архив песенных текстов, аккордов, табулатур и нот


Bigwig - Sellout - текст песни, таба, бас-таба, видео

Регистрация Запомнить меня
Войти через:  Facebook Google Twitter Vk Yandex Mail.ru

Bigwig - Sellout - текст песни, таба, бас-таба, видео

Печатать
Просмотров: 214
--------------------------------------------------------------------------
                            BIGWIG - Sellout
--------------------------------------------------------------------------

INTRO
e|------|
B|------|
G|--77--|
D|--77--|
A|--55--|
E|------|




e|---------------------------------------|
B|---------------------------------------|
G|---------------77-66-------------------|
D|-77777777------55-44-------------------|
A|-55555555-7777-------9999999-5555-7777-|
E|----------5555-------7777777-3333-5555-|


e|---------------------|
B|---------------------|
G|---------------------|
D|-7777----------------|
A|-5555-7777-9999-5555-|
E|------5555-7777-3333-|


e|-----------------------------|
B|-----------------------------|
G|-----------------------------|
D|-7777-9999-12121212-14141414-|
A|-5555-7777-10101010-12121212-|
E|-----------------------------|


e|-----------------------------------------|
B|-----------------------------------------|
G|-----------------------------------------|
D|-77---------77-----------77--------------|
A|-55-99-7777-55-44-55-77--55-99-5555-7777-|
E|----77-5555----22-33-55-----77-3333-5555-|
		    |P.M.|

BUT!! BUT!! BUT!!


e|---------------------------------------|
B|---------------------------------------|
G|---------------77-66-------------------|
D|-77777777------55-44-------------------|
A|-55555555-7777-------9999999-5555-7777-|
E|----------5555-------7777777-3333-5555-|


e|---------------------|
B|---------------------|
G|---------------------|
D|-7777----------------|
A|-5555-7777-9999-5555-|
E|------5555-7777-3333-|
 |-------P.M.----------|

e|--------------------------|
B|--------------------------|
G|--------------------------|
D|-7x7x-9x9x-12121212-pick--|
A|-5x5x-7x7x-10101010-slide-|
E|--------------------------|


e|-----------------------------------------------|
B|-----------------------------------------------|
G|------------------------------------------------|
D|-77---------77-----------77---------------pick-|
A|-55-99-7777-55-44-55-77--55-99-5555-7777-slide-|
E|----77-5555----22-33-55-----77-3333-5555-------|
		    |P.M.|


e|----------------------------------------------------------------------|
B|----------------------------------------------------------------------|
G|----------------------------------------------------------------------|
D|----------------------------------------------------------------------|
A|-5555-44-55-9999-77-9-7-5555-44-55-9999-77-9-7-5555-44-55-9999-77-9-7-|
E|-3333-22-33-7777-55-7-5-3333-22-33-7777-55-7-5-3333-22-33-7777-55-7-5-|
						 |---------P.M.---------|

e|--------------------------------|
B|--------------------------------|
G|--------------------------------|
D|-77777777-9999-1212121212121212-|
A|-55555555-7777-1010101010101010-|
E|--------------------------------|

SOLO
e|------------------------------------------------------------------------|
B|---5-7777-5-7---5-10101010-8-7---5-75---5-75---5-75---5-75---5-75---5---|
G|-7------------7---------------7------7------7------7-------7------7---7-|2X
D|------------------------------------------------------------------------|
A|------------------------------------------------------------------------|
E|------------------------------------------------------------------------|


END
e|-----|
B|-7---|
G|---7-|
D|-----|
A|-----|
E|-----|


e|---|
B|---|
G|-7-|let
D|-7-|ring
A|-5-|
E|---|


e|---------------------|
B|---------------------|
G|---------------------|
D|-7777----------------|
A|-5555-7777-9999-5555-|
E|------5555-7777-3333-|
 |--------P.M.---------|

e|-----------------------------|
B|-----------------------------|
G|-----------------------------|
D|-7777-9999-12121212-14141414-|
A|-5555-7777-10101010-12121212-|
E|-----------------------------|
 |-----------P.M.--------------|


e|---------------------------------------------|
B|---------------------------------------------|
G|---------------------------------------------|
D|-77---------77-----------77--------------(7)-|
A|-55-99-7777-55-44-55-77--55-99-5555-7777-----|
E|----77-5555----22-33-55-----77-3333-5555-----|
		    |P.M.|

e|------------------------------------------------|
B|------------------------------------------------|
G|------------------------------------------------|
D|-77---------77-----------77--------------7-5-4--|
A|-55-99-7777-55-44-55-77--55-99-5555-7777--------|
E|----77-5555----22-33-55-----77-3333-5555--------|
		    |P.M.|


e|----------------------------|
B|----------------------------|
G|----------------------------|
D|-7777---------------------7-|
A|-5555-7777-9999-5555-7777-5-|
E|------5555-7777-3333-5555---|
 |---P.M.-----|



any correction mail me, please!

henrique.langa@hotmail.com
Добавлено: 02.06.2012
Другие материалы по этой песне:
  • Аккорды и текст

Страница создана 20.03.2012
http://primanota.ru/bigwig/sellout-chords.htm
Привет, Гость.
Предлагаем пройти революционный курс по гитаре.
Подарок от PrimaNota.Ru, забирай!