PrimaNota.ru - самый крупный в мире бесплатный архив песенных текстов, аккордов, табулатур и нот


Bigwig - Reclamation - текст песни, таба, бас-таба, видео

Регистрация Запомнить меня
Войти через:  Facebook Google Twitter Vk Yandex Mail.ru

Bigwig - Reclamation - текст песни, таба, бас-таба, видео

Печатать
Просмотров: 226
Band: Bigwig
Song: Reclamation
CD: Reclamation

Intro *EFFECT*
e|--------------|
b|--------------|
g|--5--4--0--5--|
d|--7--5--2--3--|
a|--------------|
e|--------------|

Intro2 x2
e|-------------------------------|
b|-------------------------------|
g|--9-9-9--10-9-7--4-5-7--4-4-5--|
d|--x-x-x---x-x-x--x-x-x--x-x-x--|
a|--7-7-7---8-7-5--2-3-5--2-2-3--|
e|-------------------------------|

Intro3 x2 p-pull off b-bend half step
e|--17-15-13-15-13----13----------------17-15-13-15-13----13-------------->
b|-----------------17----17-15-17p15-------------------17----17-15-17p15-->
g|----------------------------------17----------------------------------17>
d|------------------------------------------------------------------------>
a|------------------------------------------------------------------------>
e|------------------------------------------------------------------------>

Intro3 cont.
e|----17-15-13-15-13----13-----------------------------------|
b|17----------------------17----17-15-17p15----15-17-17b-17--|
g|-----------------------------------------17----------------|
d|-----------------------------------------------------------|
a|-----------------------------------------------------------|
e|-----------------------------------------------------------|

Chorus x2
e|------------------------------|
b|-------------------88---------|
g|--55-44xx-----xx55-77xx-------|
d|--77-55xx55-77xx77---xx55-77--|
a|-------xx77-88xx-----xx77-88--|
e|------------------------------|

Into Verse FEFG

Verse Pt I
e|-|rif1|rif2|rif3|-------------rif4-----------|
b|-|----|----|----|----------------------------|
g|-|----|----|----|----------------------------|
d|-|---2|---3|---5|----------------------------|
a|-|030-|030-|030-|--020305030----2---2--50302-|
e|-|-x4-|-x4-|-x2-|------------030-030-0-------|
PM  ...  ...  ...              ... ... .

Rif1, Rif2, Rif3

Into Verse Pt II
A, Eb, A Bb C A

RthmGuitar verse Part II: A, F, D, E

LeadGuitar verse Pt II
e|--------------------------------------------------->
b|--------------------------------------------------->
g|--999999-77--10101010-555--999999--33--55555------->
d|--xxxxxx-xx---x-x-x-x-xxx--xxxxxx--xx--xxxxx-78107->
a|--777777-55---8-8-8-8-333--777777--11--33333-78107->
e|---------------------------------------------56-85->

e|------------------------------------------------------------|
b|------------------------------------------------------------|
g|--999999-77-1010-12-10-9-10-9--7777777--33--5555555--78107--|
d|--xxxxxx-xx--x-x--x--x-x--x-x--xxxxxxx--xx--xxxxxxx--78107--|
a|--777777-55--8-8-10--8-7--8-7--5555555--11--3333333--56-85--|
e|------------------------------------------------------------|


Into Chorus
e|------------x2-------------|--------------------------|
b|---------------------------|--------------------------|
g|---------------------------|-101010101010--9999-5555--|
d|--------------3333-3333-5--|--x-x-x-x-x-x--xxxx-xxxx--|
a|--------------3333-3333-5--|--8-8-8-8-8-8--7777-3333--|
e|--5---4---3---1111-1111-3--|--------------------------|

Chorus

Into Rif: F E

Rif1
Rif2
Rif3
Rif4
Rif1
Rif2
Rif3
Into verse Pt II
RthmGuitar/LeadGuitar PtII
IntoChorus
Chorus
Into Verse

BASS LINE!

Solo x4 /-slide
e|--------------------------|
b|--------------------------|
g|--9-7/9-10-9/5-7-5/7-9-7--|
d|--x-x-x--x-x-x-x-x-x-x-x--|
a|--7-5-7--8-7-3-5-3-5-7-5--|
e|--------------------------|

Bridge x4
e|---------------|
b|---------------|
g|-------8-------|  Into Chorus, Chorus
d|--777778-78107-|
a|--777776-78107-|
e|--55555--56-85-|

Outro /-slide
e|--------|
b|--------|
g|--------|
d|--3/5-7-|
a|--3/5-7-|
e|--1/3-5-|

my most confusing tab to date. really hard to follow using this. Many parts but theyre 
astonishing...have fun tryin to master it. I kno i left out a couple parts...i rushed 
it. Ill post them another day. Till then have fun!
Добавлено: 03.07.2012
Другие материалы по этой песне:
  • Аккорды и текст

Страница создана 22.05.2012
http://primanota.ru/bigwig/reclamation-chords.htm
Привет, Гость.
Предлагаем пройти революционный курс по гитаре.
Подарок от PrimaNota.Ru, забирай!