PrimaNota.ru - самый крупный в мире бесплатный архив песенных текстов, аккордов, табулатур и нот


Bigwig - Rat Race - текст песни, бас-таба, видео

Регистрация Запомнить меня
Войти через:  Facebook Google Twitter Vk Yandex Mail.ru

Bigwig - Rat Race - текст песни, бас-таба, видео

Печатать
Просмотров: 163
- Bigwig - Rat Race 
- Tabbed by: Pacu, bassist from a brazilian punk rock banda called PunkAss.
- Its not a hard song to play, you just have to pay attention to get it right.

__________
Intro
G|--------------------|----|
D|--------------------|----|
A|-4444---------------|-2x-|
E|------4444-5555-0-0-|----|

G|---------------------|----|
D|---------------------|----|
A|-4444----------------|-4x-|
E|------4444-5555-0000-|----|

Verse I 
G|---------------------|----|
D|---22---22---22--21--|----|
A|-44--------00------2-|-1x-|-> |----------|
E|------44--------0----|----|->
                                |---[2x]---|
G|---------------------|----|->
D|---22---22---22---24-|----|-> |----------|
A|-44--------00--------|-1x-|
E|------44--------00---|----|

G|---------------------|----|
D|---------------------|----|
A|-4444----------------|-3x-|
E|------4444-5555-0000-|----|

G|--------------------|----|
D|--------------------|----|
A|-4444---------------|-1x-|
E|------4444-5555-0-0-|----|

Pre-chorus
G|-----------------------------------------|----|
D|-----------------------------------------|----|
A|-------------------22222222-44444444-----|-2x-|
E|-44444444-55555555-----------------------|----|

Chorus
G|---------------------|----|
D|---------------------|----|
A|-4444----------------|-4x-|
E|------4444-5555-0000-|----|

Verse II
G|---------------------|----|
D|---22---22---22--21--|----|
A|-44--------00------2-|-1x-|
E|------44--------0----|----|
                               
G|---------------------|----|
D|---22---22---22---24-|----|
A|-44--------00--------|-1x-|
E|------44--------00---|----|

G|-----111-21-1-----|----|
D|----2---2--4-421--|----|
A|-444------------2-|-1x-|
E|------------------|----|
                               
G|---------------------|----|
D|---22---22---22---24-|----|
A|-44--------00--------|-1x-|
E|------44--------00---|----|

G|---------------------|----|
D|---------------------|----|
A|-4444----------------|-4x-|
E|------4444-5555-0000-|----|

Pre-chorus
G|---------------------------------|----|
D|---------------------------------|----|
A|-----------------2-2-2-2-4-4-4-4-|-2x-|
E|-4-4-4-4-5-5-5-5-----------------|----|

Chorus
G|---------------------|----|
D|---------------------|----|
A|-4444----------------|-4x-|
E|------4444-5555-0000-|----|

Bridge I
G|---------------------------------------------------------------------|----|
D|---------------------------------------------------------------------|----|
A|-4444444444444444-777777777777h976-2222222222222222------------------|-1x-|
E|----------------------------------------------------5555555544444444-|----|

G|---------------------------------------------------------------------|----|
D|---------------------------------------------------------------------|----|
A|-4444444444444444-777777777777h976-222222222222h421------------------|-1x-|
E|----------------------------------------------------5555h75744445754-|----|

G|-------------|----|
D|-------------|----|
A|-4~~~~-4\14/-|-1x-|
E|-------------|----|

G|-------------------------------------------------------------------------|----|
D|-------------------------------------------------------------------------|----|
A|-4444444444444444-777777777777h976-222222222222h421----------------------|-1x-|
E|----------------------------------------------------5555h75744445754-4-4-|----|

Bridge II
G|---------------------|----|
D|---------------------|----|
A|-4444----------------|-4x-|
E|------4444-5555-0000-|----|

Pre-chorus
G|-----------------------------------------|----|
D|-----------------------------------------|----|
A|-------------------22222222-44444444-----|-2x-|
E|-44444444-55555555-----------------------|----|

Chorus
G|---------------------|----|
D|---------------------|----|
A|-4444----------------|-4x-|
E|------4444-5555-0000-|----|

Ending
G|--------------------|----|
D|--------------------|----|
A|-4444---------------|-2x-|
E|------4444-5555-0-0-|----|
Добавлено: 03.03.2012
Другие материалы по этой песне:
  • Аккорды и текст

Страница создана 03.03.2012
http://primanota.ru/bigwig/rat-race-chords.htm
Привет, Гость.
Предлагаем пройти революционный курс по гитаре.
Подарок от PrimaNota.Ru, забирай!