PrimaNota.ru - самый крупный в мире бесплатный архив песенных текстов, аккордов, табулатур и нот


Bigwig - Owned And Operated - текст песни, бас-таба, видео

Регистрация Запомнить меня
Войти через:  Facebook Google Twitter Vk Yandex Mail.ru

Bigwig - Owned And Operated - текст песни, бас-таба, видео

Печатать
Просмотров: 178
Уроки эстрадного вокала в Санкт-Петербурге
- Bigwig - Owned and Operated
- Tabbed by: Pacu, bassist from a brasilian punk rock band called PunkAss.
- One of their best songs i guess and its not so hard to play.

__________
Intro
G|---------------|----|----------------|----|
D|---------------|----|----------------|----|
A|---------------|-3x-|----------------|-1x-|
E|-2--330-2--000-|----|-2--330-2--0000-|----|

G|--------------------------|----|
D|--------------------------|----|
A|-------0-2-3--------3-2-0-|-2x-|
E|-2-2-2--------2-2-2-------|----|

Verse I
G|------------------------------------------|----|
D|------------------------------------------|----|
A|-----------------------0-2-3--------3-2-0-|-2x-|
E|-2~-02~-02~-02~--2-2-2--------2-2-2-------|----|

G|------------------------------------|----|
D|------------------------------------|----|
A|-22-222-2-55-555-5------------------|-1x-|
E|-------------------2-0202-0202-0202-|----|

G|----------------------------------|----|
D|----------------------------------|----|
A|-22-222-2-55-555-5-99-999-9---5-2-|-1x-|
E|----------------------------5-----|----|

Pre-chorus
G|------------------|----|-------------------|----|
D|------------------|----|-------------------|----|
A|----455-4----22-2-|-1x-|----544-------22-2-|-2x-|
E|-22------55-4-----|----|-22-----455-4------|----|

Chorus
G|---------------|----|
D|---------------|----|
A|---------------|-4x-|
E|-2-3333-2-0000-|----|

G|-------------------|----|--------------------|----|
D|-------------------|----|--------------------|----|
A|-----0022-----3322-|-1x-|-----0022-------023-|-1x-|
E|-2222-----2222-----|----|-2222-----2222-2----|----|

Bridge I
G|----------------------------|----|
D|----------------------------|----|
A|--------0-2-3--------3-2-0--|-2x-|
E|-x2~--2-------x2~--2--------|----|


Verse II
G|------------------------------------------|----|
D|------------------------------------------|----|
A|-----------------------0-2-3--------3-2-0-|-2x-|
E|-2~--2~--2~--2~--2-2-2--------2-2-2-------|----|

G|------------------------------------|----|
D|------------------------------------|----|
A|-22-222-2-55-555-5------------------|-1x-|
E|-------------------2-0202-0202-0202-|----|

G|----------------------------------|----|
D|----------------------------------|----|
A|-22-222-2-55-555-5-99-999-9---5-2-|-1x-|
E|----------------------------5-----|----|

Pre-chorus
G|------------------|----|-------------------|----|
D|------------------|----|-------------------|----|
A|----455-4----22-2-|-1x-|----544-------22-2-|-2x-|
E|-22------55-4-----|----|-22-----455-4------|----|

Chorus
G|---------------|----|
D|---------------|----|
A|---------------|-4x-|
E|-2-3333-2-0000-|----|

Bridge II
G|----------------------|----|
D|----------------------|----|
A|----------------------|-4x-|
E|-2--x-2--x-2--x-5-3-0-|----|

Bridge III
G|---------------------|----|
D|---------------------|----|
A|---------------------|-4x-|
E|-22--22--22--0-5-3-0-|----|

Bridge IV
G|---------------------|----|
D|---------------------|----|
A|---------------------|-2x-|
E|-2~--2~--2~--0-5-3-0-|----|

Bridge V
G|----------------------|----|
D|----------------------|----|
A|----------------------|-2x-|
E|-2--x-2--x-2--x-5-3-0-|----|
Ending
G|------------------|----|
D|------------------|----|
A|----------3-2-0-2-|-2x-|
E|-2--2--2----------|----|

G|--------------------|----|-------------------------|----|
D|--------------------|----|-------------------------|----|
A|---02---02---023202-|-1x-|---02---02---023202------|-1x-|
E|-22---22---22-------|----|-22---22---22------2--3~-|----|
Добавлено: 04.04.2012
Другие материалы по этой песне:
  • Аккорды и текст

Страница создана 04.04.2012
http://primanota.ru/bigwig/owned-and-operated-chords.htm
Привет, Гость.
Предлагаем пройти революционный курс по гитаре.
Подарок от PrimaNota.Ru, забирай!