PrimaNota.ru - самый крупный в мире бесплатный архив песенных текстов, аккордов, табулатур и нот


Bigwig - My So Called Friend - текст песни, бас-таба, видео

Регистрация Запомнить меня
Войти через:  Facebook Google Twitter Vk Yandex Mail.ru

Bigwig - My So Called Friend - текст песни, бас-таба, видео

Печатать
Просмотров: 150
- Bigwig - My So Called Friend
- Tabbed by: Pacu, bassist from a brasilian punk rock band called PunkAss.
- You have to listen to the song to get the rythym. This song's good.


_________
Intro I
G|----------------------------|----|
D|---------------------3----3-|----|
A|----------------------------|-1x-|
E|-33-333-333-333-3-1-1--1-1--|----|

Intro II
G|----------------------------------------------------------------|----|
D|---------31-1------------------------------53--------3------3---|----|
A|-11-111-1--3-3210-----------3----------------53-----------------|-1x-|
E|-------------------11-111-1---111--33-333-3------11-1--111-1--1-|----|

G|---------------------------------------|----|
D|--------------------------3-------3333-|----|
A|-1111-1353-----31------3h5-53----------|-1x-|
E|-----------1111--31-333-------1111-----|----|

Verse
G|-------------------------------------|----|
D|-------------------------------------|----|
A|-11111111----------------------------|-1x-|
E|----------11111111-33333333-11111111-|----|

G|-------------------------------------|----|
D|--------------------------------3333-|----|
A|-11111111----------------------------|-1x-|
E|----------11111111-33333333-1111-----|----|

After Verse
G|---------------------------------------|----|
D|--------------------------3-------3333-|----|
A|-1111-1353-----31------3h5-53----------|-2x-|
E|-----------1111--31-333-------1111-----|----|

Bridge II
G|-----------------------------------------------|----|
D|-----------------------------------------------|----|
A|-1-111--1-1------------------------------------|-3x-|
E|-------------1-111--1-1--3-333—3-3--1-111--1-1-|----|

Bridge III
G|---------------------------------------|----|
D|--------------------------3-------3333-|----|
A|-1111-1353-----31------3h5-53----------|-2x-|
E|-----------1111--31-333-------1111-----|----|

Bridge IV
G|------------------------------------------|----|
D|--3--3-3---3--3-3---3--3-3----------------|----|
A|-1--1-1---0--0-0------------5/6-5-3-5-6-5-|-2x-|
E|-------------------4--4-4-----------------|----|

Guitar Bridge – NO BASS

Bridge V [01:49]
G|-------------------------------------------|----|
D|-------------------------------------------|----|
A|-1-3-5-3--5-6-5-3-1--8-6-5-6-5--66-5-3-5-6-|-2x-|
E|-------------------------------------------|----|

Bridge VI
G|-------------------------------------------------------------|----|
D|--3--3-3---3--3-3---3--3-3-----------------------------------|----|
A|-1--1-1---0--0-0------------5/6-5-3-5-6-5--66666666-33333333-|-1x-|
E|-------------------4--4-4------------------------------------|----|

Bridge VII
G|---------------------------------------|----|
D|--------------------------3-------3333-|----|
A|-1111-1353-----31------3h5-53----------|-2x-|
E|-----------1111--31-333-------1111-----|----|

Ending
G|-----------------------------------------------|----|
D|-----------------------------------------------|----|
A|-1-111--1-1------------------------------------|-1x-|
E|-------------1-111--1-1--3-333—3-3--1-111--1-1-|----|

G|----------------------------------------------|----|
D|----------------------------------------------|----|
A|-1-111--1-1--------------------------------1~-|-1x-|
E|-------------1-111--1-1--3-333—3-3—1~--1~-----|----|

G|---|----|
D|---|----|
A|-1-|-1x-|
E|---|----|
Добавлено: 11.03.2012
Другие материалы по этой песне:
  • Аккорды и текст

Страница создана 11.03.2012
http://primanota.ru/bigwig/my-so-called-friend-chords.htm
Привет, Гость.
Предлагаем пройти революционный курс по гитаре.
Подарок от PrimaNota.Ru, забирай!