PrimaNota.ru - самый крупный в мире бесплатный архив песенных текстов, аккордов, табулатур и нот


Bigwig - Mr Asshole - текст песни, бас-таба, видео

Регистрация Запомнить меня
Войти через:  Facebook Google Twitter Vk Yandex Mail.ru

Bigwig - Mr Asshole - текст песни, бас-таба, видео

Печатать
Просмотров: 147
- Bigwig - Mr. Asshole
- Tabbed by: Pacu, bassist from a brazilian punk rock band called PunkAss.
- Some parts you have to try hard to listen...but that's it.

______


Intro
 [00:00]  [00:05]       [00: 09]            [00:14]
G|-------|-------------|-------------------|------------------------|
D|-------|-------------|-------------------|------------------------|
A|-------|-------------|-------------------|------------------------|
E|-00000-|-00000-00000-|-00000-00000-00000-|-00000-00000-0000000000-|

  [00:18] [00:21]
G|-------|----------------------------------------|
D|-------|------------------141312----12----------|
A|-------|-------------------------14----14-13—12-|
E|-0-----|-1212121212121212-----------------------|

  [00:23] [2x]
G|-------------------------------------------------|
D|-------------------------------------------------|
A|-------7-7-7--------------------7-7-7------------|
E|-5-5-5-------5-5-5-0-0-0--5-5-5--------5-5-5-5-5-|

  [00:33]   [00:37]
G|---------|---------|
D|---------|---------|
A|---------|---------|
E|-5~~---5-|-5-3-2-0-|

Verse
  [00:38] [2x]
G|------------------------------------------------|
D|------------------------------------------------|
A|-------6-6-6-------6-6-6-------6-6-6------------|
E|-5-5-5-------5-5-5-------5-5-5--------5-5-5-5-5-|
  [00:47]
G|-------------------------------------|
D|-------------------------------------|
A|---------------------88-8875-757-888-|
E|-55-5-55-5-55-5-55-5-----------------|

  [00:52]
G|--------------------------------------------------|
D|-----------------------------------1212-1010------|
A|---------------------88-88-78-1010-----------1212-|
E|-55-5-55-5-55-5-55-5------------------------------|

Chorus
  [00:57] [2x]      [01:01] [1x]         [01:04] [1x]
G|----------------|--------------------|------------------|
D|----------------|--------------------|------------------|
A|----777-888-----|-----787-----101010-|-----777-888------|
E|-555--------888-|-555-----888--------|-555----------888-|

Bridge I
  [01:06]   
G|-----------------|
D|-----------------|
A|-----------------|
E|-5~~---5---55555-|

Verse
  [01:11] 
G|------------------------------------------------|
D|------------------------------------------------|
A|-------6-6-6-------6-6-6-------6-6-6------------|
E|-5-5-5-------5-5-5-------5-5-5--------5-5-5-5-5-|

  [01:16]
G|---------------------------------------------|
D|---------------------------------------------|
A|-------6-6-6-------6-6-6-------------6-5-6-8-|
E|-5-5-5-------5-5-5-------5-5-5-5-5-5---------|

  [01:20]
G|-------------------------------------|
D|-------------------------------------|
A|---------------------88-8875-757-888-|
E|-55-5-55-5-55-5-55-5-----------------|

  [01:25]
G|--------------------------------------------------|
D|-----------------------------------1212-1010------|
A|---------------------88-88-78-1010-----------1212-|
E|-55-5-55-5-55-5-55-5------------------------------|

Chorus
  [01:30] [2x]      [01:34] [1x]         [01:37] [1x]
G|----------------|--------------------|------------------|
D|----------------|--------------------|------------------|
A|----777-888-----|-----787-----101010-|-----777-888------|
E|-555--------888-|-555-----888--------|-555----------888-|

Bridge II
  [01:06]   
G|-----------------------|
D|-----------------------|
A|-----------------------|
E|-5~~--5555555555555555-|

Bass Solo
  [01:44]
G|---997799-1010-997799---997799-1010-997755---997799-1010-99-1010-1212-|
D|-77-------------------77-------------------77-------------------------|
A|----------------------------------------------------------------------|
E|----------------------------------------------------------------------|

Bridge III
 [01:48]
G|---------|
D|---------|
A|---------|
E|-5-3-2-0-|

Interlude
 [01:49]
G|---------------------|
D|---------------------|
A|---66---66---66---66-|
E|-5----5----5----5----|

  [01:55]
G|---------------------------------------------|
D|---------------------------------------------|
A|----778877----887755----778877----887755-----|
E|-55--------55--------55--------55--------5~~-|

 [02:04]
G|-----------------------|
D|-----------------------|
A|-8-7-5-7-5---5---------|
E|-----------8---8-7-5~~-|
Добавлено: 08.03.2012
Другие материалы по этой песне:
  • Аккорды и текст

Страница создана 08.03.2012
http://primanota.ru/bigwig/mr-asshole-chords.htm
Привет, Гость.
Предлагаем пройти революционный курс по гитаре.
Подарок от PrimaNota.Ru, забирай!