PrimaNota.ru - самый крупный в мире бесплатный архив песенных текстов, аккордов, табулатур и нот


Bigwig - Last Song Last Call - текст песни, бас-таба, видео

Регистрация Запомнить меня
Войти через:  Facebook Google Twitter Vk Yandex Mail.ru

Bigwig - Last Song Last Call - текст песни, бас-таба, видео

Печатать
Просмотров: 151
- Bigwig - Last Song, Last Call
- Tabbed by: Pacu, bassist from a brazilian punk rock banda called PunkAss.
- You have to listen to the song to get some parts right, i mean the verses. So listen 
The song's cool.

__________
Intro
G|------------------|----|
D|------------------|----|
A|-2---------2------|-1x-|
E|------------------|----|

G|------------------|----|-----------------|----|
D|---------22-233-3-|----|---------22-23-3-|----|
A|-22-255-5---------|-3x-|-22-255-5--------|-1x-|
E|------------------|----|-----------------|----|

G|------------------|----|
D|---------22-233-3-|----|
A|-22-255-5---------|-2x-|
E|------------------|----|

Verse I
G|-------------------------|---------------------2-|
D|-----2-44-24-55-42-44-2--|-----2-44-24-55-44-2---|
A|-22-5------------------5-|-22-5------------------|
E|-------------------------|-----------------------|

G|-------------------------|-----------2x------|
D|-----2-44-24-55-42-44-2--|-----2-44-2--5x4x5-|
A|-22-5------------------5-|-22-5--------------|
E|-------------------------|-------------------|

G|-------------------------|-----------2---------|
D|-----2-44-24-55-42-44-2--|-----2-44-2--5-4-5-4-|
A|-22-5------------------5-|-22-5----------------|
E|-------------------------|---------------------|

G|-------------------------|------------------|
D|-----2-44-24-55-42-44-2--|------------------|
A|-22-5------------------5-|------------------|
E|-------------------------|-00000000-0-2-3-5-|

Chorus
G|------------------|----|-----------------|----|
D|---------22-233-3-|----|---------22-23-3-|----|
A|-22-255-5---------|-1x-|-22-255-5--------|-1x-|
E|------------------|----|-----------------|----|

G|------------------|----|
D|---------22-233-3-|----|
A|-22-255-5---------|-2x-|
E|------------------|----|

Bridge I
G|-----------------|--------------2-|
D|-----2-4-5-4-2---|-----2-4-5-4-2--|
A|-2-5-----------5-|-2-5------------|
E|-----------------|----------------|

G|-----------------|-2---------------|
D|-----2-4-5-4-2---|---5-4-2-5-4-2---|
A|-2-5-----------5-|---------------5-|
E|-----------------|-----------------|

Verse II
G|-------------------------|---------------------2-|
D|-----2-44-24-55-42-44-2--|-----2-44-24-55-44-2---|
A|-22-5------------------5-|-22-5------------------|
E|-------------------------|-----------------------|

G|-------------------------|---------------------2-|
D|-----2-44-24-55-42-44-2--|-----2-44-24-55-44-2---|
A|-22-5------------------5-|-22-5------------------|
E|-------------------------|-----------------------|

G|-----------------|---------------------|
D|---------------2-|---------------------|
A|-2---2---2---2---|-2---2---22-44-55-44-|
E|---2---2---2-----|---2---2-------------|

G|-------------------------|------------------|
D|-----2-44-24-55-42-44-2--|------------------|
A|-22-5------------------5-|------------------|
E|-------------------------|-00000000-0-2-3-5-|

Bridge II [01:27]
G|---------------------|----|
D|---------------------|----|
A|-2222-5555------0000-|-2x-|
E|-----------2222------|----|

G|-----------------|----|
D|-----------------|----|
A|-222-555-----000-|-2x-|
E|---------222-----|----|

G|---------------------|----|
D|---------------------|----|
A|-2222-5555------0000-|-1x-|
E|-----------2222------|----|

G|------------------|----|
D|-----------3333-2-|----|
A|-2222-5555--------|-1x-|
E|------------------|----|

Chorus
G|------------------|----|-----------------|----|
D|---------22-233-3-|----|---------22-23-3-|----|
A|-22-255-5---------|-1x-|-22-255-5--------|-1x-|
E|------------------|----|-----------------|----|

G|------------------|----|
D|---------22-233-3-|----|
A|-22-255-5---------|-2x-|
E|------------------|----|

Bridge III
G|---------------------|----|
D|-----------2222-3333-|----|
A|-2222-5555-----------|-2x-|
E|---------------------|----|

G|---------------------------------|----|
D|-----------------2-2-2-2-3-3-3-3-|----|
A|-2-2-2-2-5-5-5-5-----------------|-2x-|
E|---------------------------------|----|

G|------------------|----|
D|---------22-233-3-|----|
A|-22-255-5---------|-1x-|
E|------------------|----|

G|-----------------|----|
D|---------22-232--|----|
A|-22-255-5------5-|-1x-|
E|-----------------|----|

Ending
G|-------------------------|---------------------2-|
D|-----2-44-24-55-42-44-2--|-----2-44-24-55-44-2---|
A|-22-5------------------5-|-22-5------------------|
E|-------------------------|-----------------------|

G|-------------------------|-2-------------------|
D|-----2-44-24-55-42-44-2--|---5-4-5-4-2-4-2-----|
A|-22-5------------------5-|-----------------5-2-|
E|-------------------------|---------------------|
Добавлено: 20.07.2012
Другие материалы по этой песне:
  • Аккорды и текст

Страница создана 19.07.2012
http://primanota.ru/bigwig/last-song-last-call-chords.htm
Привет, Гость.
Предлагаем пройти революционный курс по гитаре.
Подарок от PrimaNota.Ru, забирай!