PrimaNota.ru - самый крупный в мире бесплатный архив песенных текстов, аккордов, табулатур и нот


Bigwig - Jerk - текст песни, таба, видео

Регистрация Запомнить меня
Войти через:  Facebook Google Twitter Vk Yandex Mail.ru

Bigwig - Jerk - текст песни, таба, видео

Печатать
Просмотров: 162
-------------------------------------------------------------------------------
                             Jerk - Bigwig
-------------------------------------------------------------------------------
Tabbed by:Tannerman44
Email:Tannerman218@yahoo.com

Tuning:Standard
/  slide up
\  slide down
~  vibrato

INTRO/VERSE

e|---0--------------------------------------------7--------------------------|
B|---0----------------------------------------------5------------------------|
G|-------------------------------6--6-6-6-----6-------6----------------------|
D|-2---------4-------------------6--6-6-6-7-7---7-------7--------------------|
A|-2---------2-2-2-2-2/4\2-4-4-4-4--4-4-4-7----------------------------------|
E|-0---0-2-4------------------------------5----------------------------------|

e|---0-----------------------------------------------------------------------|
B|---0-----------------------------------------------------------------------|
G|---------------------------------------------------------------------------|
D|-2---------4-------------------6-6-6-6-6-6-6-7-7-7-7-7-7-------------------|
A|-2---------2-2-2-2-2//4\\2-4-4-4-6-6-6-6-6-6-7-7-7-7-7-7-------------------|
E|-0---0-2-4---------------------4-4-4-4-4-4-4-5-5-5-5-5-5-------------------|

e|--------------|
B|--------------|
G|--------------|
D|-7-6-4-2------|  Play before each verse
A|-7-6-4-2------|
E|-5-4-2-0------|

CHORUS
e|---0----------0----------0----------0--------------------------------------|
B|-----0----------0----------0--------0--------------------------------------|
G|---------------------------------------------------------------------------|
D|-2-----2//4-4-----4//6-6-----6//7-7---7-6-4-2------------------------------|
A|-2-----2//4-4-----4//6-6-----6//7-7---7-6-4-2------------------------------|
E|-0-----0//2-2-----2//4-4-----4//5-5---5-4-2-0------------------------------|

BRIDGE
e|---------------------------------------4444444444-------------4444444444---|
B|---5-5-5-------------------~5~-~5~-~5~------------~5~-~5~-~5~--------------|
G|---------------------------------------------------------------------------|
D|-2-------------------------------------------------------------------------|
A|-2-------0\\(PICKSCRAPE)\\-------------------------------------------------|
E|-0-------0\\(PICKSCRAPE)\\-------------------------------------------------|

END ON
e|---0------|
B|---0------|
G|----------|
D|----------|
A|----------|
E|----------|

Bigwig is a great band and i hope yall enjoy. This is my first tab so if there is any 
or any sugestions email me at... Tannerman218@yahoo.com.

===============================================================================
Добавлено: 19.04.2012
Другие материалы по этой песне:

Страница создана 22.02.2012
http://primanota.ru/bigwig/jerk-chords.htm
Привет, Гость.
Предлагаем пройти революционный курс по гитаре.
Подарок от PrimaNota.Ru, забирай!