PrimaNota.ru - самый крупный в мире бесплатный архив песенных текстов, аккордов, табулатур и нот


Bigwig - Hope - бас-таба, видео

Регистрация Запомнить меня
Войти через:  Facebook Google Twitter Vk Yandex Mail.ru

Bigwig - Hope - бас-таба, видео

Печатать
Просмотров: 144
- Bigwig - Hope
- Tabbed by: Pacu, bassist from a brazilian punk rock band called PunkAss.
- Easy song to play.


Intro [starts at 00:15]
G|-------------------------|----------------------------|
D|-------------------------|----------------------------|
A|-5-12-44-5---------------|5-12-44-55-----4-4----------|
E|-----------55-5-33220020-|-----------5-55-5--33220020-|

G|--------------------------------------|----------------------------|
D|--------------4h5p4-------------------|----------------------------|
A|-5-555555-4444-----5-----4-4----------|5-12-44-55-----4-4----------|
E|---------------------5-55-5--33220020-|-----------5-55-5--33220020-|

Verse
G|----------------------------------|
D|------------------------------7-7-|
A|-5555555544444444-----------------|
E|-----------------7777777755555-5--|

G|------------------------------------|---------------------|
D|------------------------------------|--5~-----------------|
A|-5555555544444444--9910109977445544-|-------------------4-|
E|-----------------77-----------------|-3---55332200223355--|

Intro
G|-------------------------|----------------------------|
D|-------------------------|----------------------------|
A|-5-12-44-5---------------|5-12-44-55-----4-4----------|
E|-----------55-5-33220020-|-----------5-55-5--33220020-|

Verse
G|----------------------------------|
D|------------------------------7-7-|
A|-5555555544444444-----------------|
E|-----------------7777777755555-5--|

G|------------------------------------|---------------------|
D|------------------------------------|--5~-----------------|
A|-5555555544444444--9910109977445544-|-------------------4-|
E|-----------------77-----------------|-3---55332200223355--|

Chorus 
G|----------------------------------------|
D|----------------------------------------|
A|-5-555555----------------------------34-|
E|----------5-555555-3-3-2-2-0-0-22-3h5---|

G|----------------------------|
D|--------45-7-77-7h97-54-----|
A|-5-555-5---------------754--|
E|--------------------------7-|

G|-----------------------------------|
D|--------------------------------44-|
A|-5-555555---4422----5533--445577---|
E|----------22----4433----55---------|

G|---------------------------------------------|
D|---------------------------------------------|
A|-5-5-5-5-7-7-7h9-7-10-10-10-10-1212101099109-|
E|---------------------------------------------|

Intro
G|--------------------------------|----------------------------|
D|--------------------------------|----------------------------|
A|-5----44444444-----4-4----------|5-12-44-55-----4-4----------|
E|---------------5-55-5--33220020-|-----------5-55-5--33220020-|

Chorus
G|----------------------------------------|
D|----------------------------------------|
A|-5-555555----------------------------34-|
E|----------5-555555-3-3-2-2-0-0-22-3h5---|

G|----------------------------|
D|--------45-7-77-7h97-54-----|
A|-5-555-5---------------754--|
E|--------------------------7-|

G|-----------------------------------|
D|--------------------------------44-|
A|-5-555555---4422----5533--445577---|
E|----------22----4433----55---------|

G|------------------------------------------------|
D|------------------------------------------------|
A|-55-5-5-5-7-7-7h9-7-10-10-10-10-1212101099109-5-|
E|------------------------------------------------|

Ending
G|----------------------------------------|
D|----------------------------------------|
A|-----------5-12-44-5-----4-4----------5-|
E|-33220020------------5-55-5--33220020---|





Добавлено: 27.03.2012
Другие материалы по этой песне:

Страница создана 27.03.2012
http://primanota.ru/bigwig/hope-chords.htm
Привет, Гость.
Предлагаем пройти революционный курс по гитаре.
Подарок от PrimaNota.Ru, забирай!