PrimaNota.ru - самый крупный в мире бесплатный архив песенных текстов, аккордов, табулатур и нот


Bigwig - Flavor Ice - текст песни, таба, видео

Регистрация Запомнить меня
Войти через:  Facebook Google Twitter Vk Yandex Mail.ru

Bigwig - Flavor Ice - текст песни, таба, видео

Печатать
Просмотров: 156
Artist: Bigwig
Song: Flavor Ice
Album: Stay Asleep


Tuning: Standard (EADGBe)


/X - slide (to the lowest end of the fretboard)


INTRO
Guitars 1 and 2:
e | -----------------------|
B | -----------------------|
G | -9--9--9--9------------|
D | -9--9--9--9------------|
A | -7--7--7--7------------|
E | ------------pickscrape-|


then


Guitar 1:
e | -----------------------|
B | -----------------------|
G | -9---------------------|
D | -9-(x16)-7------9------|
A | -7-------7-(x8)-9-(x8)-|  x2
E | ---------5------7------|

Guitar 2:
e | ----------------------------------|
B | ----------------------------------|
G | -13-------11-11-11-11-13-13-11-11-|
D | -X--(x24)-X--X--X--X--X--X--X--X--|
A | -11-------9--9--9--9--11-11-9--9--|
E | ----------------------------------|

e | -------------------------------------------------------------|
B | -------------------------------------------------------------|
G | -13------9-------9-9-11-11-13-13-11-11-9-9-11-11-13-13-11-11-|
D | -X--(x8)-X-(x8)--X-X-X--X--X--X--X--X--X-X-X--X--X--X--X--X--|
A | -11------7-------7-7-9--9--11-11-9--9--7-7-9--9--11-11-9--9--|
E | -------------------------------------------------------------|

VERSE
Guitars 1 and 2:
e | ------------------------|
B | ------------------------|
G | -9----------------------|
D | -9-(x16)-7------9-------|
A | -7-------7-(x8)-9--(x8)-|  x2
E | ---------5------7-------|

e | ------------------------|
B | ------------------------|
G | ------------------------|
D | -2--------7------9------|
A | -2-(ring)-7-(x8)-9-(x8)-|  x2
E | -0--------5------7------|


CHORUS
Guitar 1:
e | -----------------------|
B | -----------------------|
G | -6------4--------------|
D | -6-(x8)-4-(x8)-7-------|
A | -4------2------7-(x16)-|  x3
E | ---------------5-------|

e | --------------------|
B | --------------------|
G | -6------4-----------|
D | -6-(x8)-4-(x8)-7--9-|
A | -4------2------7--9-|
E | ---------------5--7-|


Guitar 2:
e | ---------------------------------------|
B | ---------------------------------------|
G | -6------8------9-------11--------------|
D | -X-(x8)-X-(x8)-X-(x24)-X--(x8)-7-------|
A | -4------6------7-------9-------7-(x16)-|
E | -------------------------------5-------|

e | ------------------------------------|
B | ------------------------------------|
G | -6------8------9-------11-----------|
D | -X-(x8)-X-(x8)-X-(x24)-X--(x8)-7--9-|
A | -4------6------7-------9-------7--9-|
E | -------------------------------5--7-|

REPEAT VERSE (w/ palm muting)
and also, add:
e | -0---
B | ---0-
G | -----
D | -----
A | -----
E | -----


REPEAT CHORUS

REPEAT INTRO

REPEAT CHORUS


END ON:
e | -----
B | -----
G | -7/X-
D | -7/X-
A | -9/X-
E | -----


Listen for subtle rhythm changes, bnd that's about it!
Pretty simple song, but a lot of fun.
Enjoy!


Tabbed by: Mike Paulshock
Добавлено: 05.06.2012
Другие материалы по этой песне:
  • Аккорды и текст

Страница создана 23.03.2012
http://primanota.ru/bigwig/flavor-ice-chords.htm
Привет, Гость.
Предлагаем пройти революционный курс по гитаре.
Подарок от PrimaNota.Ru, забирай!