PrimaNota.ru - самый крупный в мире бесплатный архив песенных текстов, аккордов, табулатур и нот


Bigwig - Cross And Burn - текст песни, бас-таба, видео

Регистрация Запомнить меня
Войти через:  Facebook Google Twitter Vk Yandex Mail.ru

Bigwig - Cross And Burn - текст песни, бас-таба, видео

Печатать
Просмотров: 251
- Bigwig - Cross and Burn
- Tabbed by: Pacu, bassist from a brazilian punk rock banda called PunkAss.
- Some parts were a bit hard to hear but i guess its fine. Listen to the song and you'll
this right.

__________
Intro
G|-----------------|----|
D|-----------------|----|
A|-1-3-4-1-4-1-3~~-|-1x-|
E|-----------------|----|

Verse I
G|------------------------|----|-------------------------|----|
D|------------------------|----|-------------------------|----|
A|-----46-341------46-346-|-3x-|----46-341--333333---666-|-1x-|
E|-1x1---------1x1--------|----|1x1---------------444----|----|

Verse II
G|------------------------------|----|
D|------------------------------|----|
A|---------------666666-444-666-|-2x-|
E|-111111-444444----------------|----|

G|------------------------------------------------------|----|
D|------------------------------------------------------|----|
A|---------------666666-444444--------111111-4444444444-|-1x-|
E|-111111-444444---------------444444-------------------|----|

Chorus I
G|--------------|----|-----------------|----|-----------|----|
D|--------------|----|-----------------|----|-----------|----|
A|-3x3--5-7-8-7-|-2x-|-3x3—5-7-8-7-5-7-|-1x-|-3x3--1341-|-1x-|
E|--------------|----|-----------------|----|-----------|----|

Verse I
G|------------------------|----|-------------------------|----|
D|------------------------|----|-------------------------|----|
A|-----46-341------46-346-|-3x-|----46-341--333333---666-|-1x-|
E|-1x1---------1x1--------|----|1x1---------------444----|----|

Verse II
G|------------------------------|----|
D|------------------------------|----|
A|---------------666666-444-666-|-2x-|
E|-111111-444444----------------|----|

G|------------------------------------------------------|----|
D|------------------------------------------------------|----|
A|---------------666666-444444--------111111-4444444444-|-1x-|
E|-111111-444444---------------444444-------------------|----|

Chorus II
G|--------------|----|--------------------|----|
D|--------------|----|--------------------|----|
A|-3x3--5-7-8-7-|-2x-|-33x33x—5-7-8-7-5-7-|-1x-|
E|--------------|----|--------------------|----|

G|-----------------------------------|----|
D|-----------------------------------|----|
A|-3x3--1-3-4-1-4-3---1-3---1--------|-1x-|
E|------------------4-----4---4-1~~~-|----|
Добавлено: 01.06.2012
Другие материалы по этой песне:
  • Аккорды и текст

Страница создана 01.06.2012
http://primanota.ru/bigwig/cross-and-burn-chords.htm
Привет, Гость.
Предлагаем пройти революционный курс по гитаре.
Подарок от PrimaNota.Ru, забирай!