PrimaNota.ru - самый крупный в мире бесплатный архив песенных текстов, аккордов, табулатур и нот


Bigwig - Bordumb - бас-таба

Регистрация Запомнить меня
Войти через:  Facebook Google Twitter Vk Yandex Mail.ru

Bigwig - Bordumb - бас-таба

Печатать
Просмотров: 138
- Bigwig - Bordumb
- Tabbed by Pacu, bassist from a brazilian punk rock band that is called PunkAss.
- You gotta listen to some parts to get it right.

__________
Intro I
G|--------------------------------------------------------|----|
D|-------------------97676----------------------------6---|----|
A|-7~777-7~777-7~777------976--7~777-7~777-7~777---679-76-|-1x-|
E|-----------------------------------------------79-------|----|

G|----------------------------------------------|----|
D|--------------------------9-9-9-9--9-9----9---|----|
A|-7~777-7~777-7~777-7~777-7-6------7-6-7/11-12-|-1x-|
E|-----------------------------9-7--------------|----|

Intro II
G|------------------------------------------------------------------|----|
D|------------------------------------------------------------7-6---|----|
A|-7777777777777777----------------7777777777777777---------------9-|-1x-|
E|-----------------5555555555555555----------------77777777-7-------|----|

G|-------------------------------------|----|
D|-------------------------------------|----|
A|-77777777-44444444--------7----------|-1x-|
E|-------------------5555555--77777777-|----|

G|------------------------------------|----|
D|------------------------------------|----|
A|-----------------7------------------|-1x-|
E|-00000000-5555555--77777777-7777777-|----|

Verse [2x]
G|-------------------------------------|----|
D|-------------------------------------|----|
A|-77777777-44444444--------7----------|-1x-|
E|-------------------5555555--77777777-|----|

G|------------------------------------|----|
D|------------------------------------|----|
A|-----------------7------------------|-1x-|
E|-00000000-5555555--77777777-7777777-|----|

Chorus 
G|-------------------------------------------------------------|----|
D|------------------------------------------676----------------|----|
A|---------------------------------77-777-79-------------------|-1x-|
E|-44-444-444-444--455-555-555-555--------------77-777-777-777-|----|

G|---------------------------------------------------------------|----|
D|---------------------------------------------------------------|----|
A|---------------------------------------------------------------|-1x-|
E|-44-444-444-444--455-555-555-555-00-000-000-000-77-777-777-777-|----|

Bridge I
G|--------------------------------------------------------------------|----|
D|--------------------------------------------------------------------|----|
A|-7777777777777777----------------7777777777777777-----------------7-|-1x-|
E|-----------------5555555555555555----------------7777777777777777---|----|

G|--------------------------------------------------------------------|----|
D|--------------------------------------------------------------------|----|
A|--------------------------------------------------------------------|-1x-|
E|---------------------------------------------------7777777777777777-|----|

Bridge II
G|-------------------------------------|----|
D|-------------------------------------|----|
A|-77777777-44444444--------7----------|-1x-|
E|-------------------5555555--77777777-|----|

G|------------------------------------|----|
D|------------------------------------|----|
A|-----------------7------------------|-1x-|
E|-00000000-5555555--77777777-7777777-|----|

Verse [2x]
G|-------------------------------------|----|
D|-------------------------------------|----|
A|-77777777-44444444--------7----------|-1x-|
E|-------------------5555555--77777777-|----|

G|------------------------------------|----|
D|------------------------------------|----|
A|-----------------7------------------|-1x-|
E|-00000000-5555555--77777777-7777777-|----|

Chorus 
G|-------------------------------------------------------------|----|
D|------------------------------------------676----------------|----|
A|---------------------------------77-777-79-------------------|-1x-|
E|-44-444-444-444--455-555-555-555--------------77-777-777-777-|----|

G|---------------------------------------------------------------|----|
D|---------------------------------------------------------------|----|
A|---------------------------------------------------------------|-1x-|
E|-44-444-444-444--455-555-555-555-00-000-000-000-77-777-777-777-|----|

Bridge III
G|-------------------------------|----|
D|--------7-6------9-7-6---6-676-|----|
A|-7-6--------9-7--------9--9----|-1x-|
E|-----9-------------------------|----|

G|---------------------------------------------------------------------|----|
D|------------------7777777777777777------------------99999999-9-7-6---|----|
A|-7777777777777777------------------7777777777777777----------------9-|-1x-|
E|---------------------------------------------------------------------|----|

Ending
G|-------------------------------------|----|
D|-------------------------------------|----|
A|-77777777-44444444--------7----------|-1x-|
E|-------------------5555555--77777777-|----|

G|--------------------------------------|----|
D|--------------------------------------|----|
A|-----------------7------------------7-|-1x-|
E|-00000000-5555555--77777777-7777777---|----|
Добавлено: 06.06.2012
Другие материалы по этой песне:
  • Аккорды и текст

Страница создана 06.06.2012
http://primanota.ru/bigwig/bordumb-chords.htm
Привет, Гость.
Предлагаем пройти революционный курс по гитаре.
Подарок от PrimaNota.Ru, забирай!