PrimaNota.ru - самый крупный в мире бесплатный архив песенных текстов, аккордов, табулатур и нот


Bigwig - Alone In New Jersey - текст песни, таба, бас-таба, видео

Регистрация Запомнить меня
Войти через:  Facebook Google Twitter Vk Yandex Mail.ru

Bigwig - Alone In New Jersey - текст песни, таба, бас-таба, видео

Печатать
Просмотров: 164
-------------------------------------------------------------------------------
                             SONG NAME - Band Name
-------------------------------------------------------------------------------
Tabbed by:
E-mail:

. = Palm mute

Tuning:E-A-D-G-B-E
Intro guitar 1:
e|:-----------------------------------10-8-7-8-7-----------------------------|
B|----7-8------10b(12)-10b(12)-10----------------10-10b(12)-(12)-10p8--------|
G|-\9-----9-----------------------------------------------------------9------|
D|---------------------------------------------------------------------------|
A|---------------------------------------------------------------------------|
E|---------------------------------------------------------------------------|

e|--------------10-8-7-8-7---------------------------------------------------|
B|---7-8-10-8-7-----------10-10b(12)--10-------------------------------------|
G|-\9------------------------------------------------------------------------|
D|---------------------------------------------------------------------------|
A|---------------------------------------------------------------------------|
E|---------------------------------------------------------------------------|
Intro guitar 2:
e|---------------------------------------------------------------------------|
B|---------------------------------------------------------------------------|
G|---------------------------------------------------------------------------|
D|-5555-5555-2222-------5555-5555-2222-10101010------------------------------|
A|-3333-2222-0000-3333--3333-2222-0000-8-8-8-8-------------------------------|
E|----------------1111-------------------------------------------------------|
Verse 1 guitar 1:
e|---------------------------------------------------------------------------|
B|---------------------------------------------------------------------------|
G|-9-9--9-9-9--9-9-9---9-9---5---1010-101010-101010-1010--10-----------------|
D|-x-x--x-x-x--x-x-x---x-x---x---x-x--x-x-x--x-x-x--x-x---x------------------|
A|-7-7--7-7-7--7-7-7---7-7---2---8-8--8-8-8--8-8-8--8-8---8------------------|
E|---------------------------------------------------------------------------|

e|---------------------------------------------------------------------------|
B|---------------------------------------------------------------------------|
G|-5-5--5-5-5--7-7--7-7-10--9-9--99------9-9--99-----------------------------|
D|-x-x--x-x-x--x-x--x-x-x---x-x--xx------x-x--xx-----------------------------|
A|-3-3--3-3-3--5-5--5-5-8---7-7--77-7777-7-7--77-7777------------------------|
E|---------------------------------------------------------------------------|
                                     ....          .... 

e|---------------------------------------------------------------------------|
B|---------------------------------------------------------------------------|
G|-9-9--9-9-9--9-9-9--9-9---5---1010-101010-101010-1010--5-------------------|
D|-x-x--x-x-x--x-x-x--x-x---x---x-x--x-x-x--x-x-x--x-x---x-------------------|
A|-7-7--7-7-7--7-7-7--7-7---2---8-8--8-8-8--8-8-8--8-8---3-------------------|
E|---------------------------------------------------------------------------|

e|---------------------------------------------------------------------------|
B|---------------------------------------------------------------------------|
G|-1010-101010-101010-101010--7-7--7-9-9--9-1010-101212----------------------|
D|-x-x--x-x-x--x-x-x--x-x-x---x-x--x-x-x--x-x-x--x-x-x-----------------------|
A|-1212-121212-121212-121212--5-5--5-7-7--7-8-8--8-1010----------------------|
E|---------------------------------------------------------------------------|
Verse 1 guitar 2:
e|---------------------------------------------------------------------------|
B|---------------------------------------------------------------------------|
G|---------------------------------------------------------------------------|
D|-55-555-555-55--5--77-777-777-77---------------------55-55------55-55-------|
A|-33-333-333-33--2--55-555-555-55--2--33-333-333-333--33-33-3333-33-33-3333-|
E|----------------------------------0--11-111-111-111------------------------|
                                                             ....       ....
e|---------------------------------------------------------------------------|
B|---------------------------------------------------------------------------|
G|---------------------------------------------------------------------------|
D|-55-555-555-55--5--77-777-777-77-------------------------------------------|
A|-33-333-333-33--2--55-555-555-55--2--33-333-333-333-55-555-----------------|
E|----------------------------------0--11-111-111-111-33-333-333-333---------|
Verse 2 guitar 1:
e|---------------------------------------------------------------------------|
B|---------------------------------------------------------------------------|
G|-5-5--55------5-5--5-5-4--1010101010101010-12-9--7-7-77-------7-7--7-7-5---|
D|-x-x--xx------x-x--x-x-x--x-x-x-x-x-x-x-x--x--x--x-x-xx-------x-x--x-x-x---|
A|-3-3--33-3333-3-3--3-3-2--8-8-8-8-8-8-8-8--10-7--5-5-55-5555--5-5--5-5-3---|
E|---------------------------------------------------------------------------|
           ....                                        ....
e|---------------------------------------------------------------------------|
B|---------------------------------------------------------------------------|
G|-9-9--9-9-9--9--7-7--7-7-7--7----------------------------------------------|
D|-x-x--x-x-x--x--x-x--x-x-x--x----------------------------------------------|
A|-7-7--7-7-7--7--5-5--5-5-5--5----------------------------------------------|
E|---------------------------------------------------------------------------|
                                               
e|---------------------------------------------------------------------------|
B|---------------------------------------------------------------------------|
G|-5-5--55------5-5-4-4--1010101010101010-12-9--7-7-77------7-7-77------7~---|
D|-x-x--xx------x-x-x-x--x-x-x-x-x-x-x-x--x--x--x-x-xx------x-x-xx------x~---|
A|-3-3--33-3333-3-3-2-2--8-8-8-8-8-8-8-8--10-7--5-5-55-5555-5-5-55-5555-5~---|
E|---------------------------------------------------------------------------|
           ....                                        ....        ....
Verse 2 guitar 2:
e|---------------------------------------------------------------------------|
B|---------------------------------------------------------------------------|
G|---------------------------------------------------------------------------|
D|----------------------------------------------------------555-5-55-555-----|
A|-7-7-77------7-7--7-7-5-33-333-333-333-5-5-55------55-555-333-3-22-222-----|
E|-5-5-55-5555-5-5--5-5-3-11-111-111-111-3-3-33-3333-33-333------------------|
          ....                                  ....      

e|---------------------------------------------------------------------------|
B|---------------------------------------------------------------------------|
G|---------------------------------------------------------------------------|
D|---------------------------------------------------------------------------|
A|-7-7-77------7-7--7-7-5-33-333-333-333-5-5-55------5-5-55------5~-7--------|
E|-5-5-55-5555-5-5--5-5-3-11-111-111-111-3-3-33-3333-3-3-33-3333-3~-5--------|
          ....                                  ....        ....
Start @ intro 

Pre Chorus guitar 1+2:
e|---------------------------------------------------------------------------|
B|---------------------------------------------------------------------------|
G|-----------------------------5555------------------------------------------|
D|-55-555-522-2----55-555-522-23333------------------------------------------|
A|-33-322-200-033--33-322-200-0----------------------------------------------|
E|-------------11------------------------------------------------------------|

Chorus guitar 1:

e|---------------------------------------------------------------------------
B|---------------------------------------------------------------------------
G|-55555555-55555555-55555555-1010101010101010--5-5-5-5-12121212-10101010----
D|-xxxxxxxx-xxxxxxxx-xxxxxxxx-x-x-x-x-x-x-x-x---x-x-x-x-x-x-x-x--x-x-x-x-----
A|-33333333-22222222-00000000-8-8-8-8-8-8-8-8---3-3-3-3-10101010-8-8-8-8-----
E|---------------------------------------------------------------------------

e|---------------------------------------------------------------------------
B|---------------------------------------------------------------------------
G|-9-9-9-9--7-7-7-7-12121212-10101010-9-9-9-9--7-7-7-7-12121212-10101010-----
D|-x-x-x-x--x-x-x-x-x-x-x-x--x-x-x-x--x-x-x-x--x-x-x-x-x-x-x-x--x-x-x-x------
A|-7-7-7-7--5-5-5-5-10101010-8-8-8-8--7-7-7-7--5-5-5-5-10101010-8-8-8-8------
E|---------------------------------------------------------------------------

e|---------------------------------------------------------------------------|
B|---------------------------------------------------------------------------|
G|-9-9-9-9--101010101010~----------------------------------------------------|
D|-x-x-x-x--x-x-x-x-x-x~-----------------------------------------------------|
A|-7-7-7-7--8-8-8-8-8-8~-----------------------------------------------------|
E|---------------------------------------------------------------------------|

Chorus Guitar 2:

e|---------------------------------------------------------------------------|
B|---------------------------------------------------------------------------|
G|----------------------------------------------------------------55555555---|
D|-55555555-55555555-22222222----------55555555-55555555-22222222-33333333---|
A|-33333333-22222222-00000000-33333333-33333333-22222222-00000000------------|
E|----------------------------11111111---------------------------------------|


Start @ verse 1 


*********************************

| /   slide up
| \   slide down
| h   hammer-on
| p   pull-off
| ~   vibrato
| +   harmonic
| x   Mute note
| b   Bend
| pb  Pre-bend
| br  Bend release
| pbr Pre-bend release
| brb Bend release bend

************************************
Добавлено: 29.07.2015
Другие материалы по этой песне:
  • Аккорды и текст

Страница создана 24.06.2012
http://primanota.ru/bigwig/alone-in-new-jersey-chords.htm
Привет, Гость.
Предлагаем пройти революционный курс по гитаре.
Подарок от PrimaNota.Ru, забирай!