PrimaNota.ru - самый крупный в мире бесплатный архив песенных текстов, аккордов, табулатур и нот


Bigwig - A War Inside - текст песни, таба, бас-таба, видео

Регистрация Запомнить меня
Войти через:  Facebook Google Twitter Vk Yandex Mail.ru

Bigwig - A War Inside - текст песни, таба, бас-таба, видео

Печатать
Просмотров: 193
---------------------------------------------------------
             BIGWIG - A WAR INSIDE
---------------------------------------------------------





tab by: Farting Gramps
farting_grampz@hotmail.com


Band: BIGWIG
Song: A War Inside
Album: Reclamation (2006)
website: www.njbigwig.com



···Standard Tuning···

KEY:

 ->  time
 .   palm mute
 *   pause
 x   mute
 \   slide down
 /   slide up
 ~   let ring




Intro:
-> 0:00

|GUITAR 1                                     |BOTH GUITARS         |
|---------------------------------------------|---------------------|
|---------------------------------------------|---------------------|
|---------------------------------------------|---------------------|
|-4444-------------4444-------------4444------|--9-7-5-4--5----4----|
|-----444455555555-----444455555555-----4444--|--9-7-5-4--5-*--4-*--|
|---------------------------------------------|--7-5-3-2--3----2----|
| ................ ................ ........  |
|GUITAR 2                                     |
|---------------------------------------------|
|---------------------------------------------|
|---------------------------------------------|
|-7777-------------7777-------------7777------|
|-5555777799999999-5555777799999999-55557777--|
|-----555577777777-----555577777777-----5555--|
  ................ ................ ........




Intro 2:
-> 0:10

|GUITAR 1      wah wah pedal               |
|------------------------------------------|
|------------------------------------------|
|------------------------------------------|
|-------------------¿?---------------------|
|------------------------------------------|
|------------------------------------------|
|                                          |
|GUITAR 2                                  |
|------------------------------------------|
|------------------------------------------|
|----------777777-----------------7--------|
|-999999-7-777777-7-999999-7-5555-7-7------|
|-999999-7-555555-7-999999-7-5555-5-777777-|
|-777777-5--------5-777777-5-3333---555555-|
                                     ..... 

|GUITAR 1      wah wah pedal               |
|------------------------------------------|
|------------------------------------------|
|------------------------------------------|
|-------------------¿?---------------------|
|------------------------------------------|
|------------------------------------------|
|                                          |
|GUITAR 2                                  |
|------------------------------------------|
|------------------------------------------|
|----------777777-----------------7--------|
|-999999-7-777777-7-999999-7-5----7-7xxxxx-|
|-999999-7-555555-7-999999-7-5555-5-7xxxxx-|
|-777777-5--------5-777777-5-3333---5xxxxx-|
                              ...



Verse:
-> 0:22

|BOTH GUITARS                           |
|---------------------------------------|
|---------------------------------------|
|--------7\-----------------------------|
|-9\---7-7\---7-9\---7-55555-77777--9\--|
|-9\---7-5\---7-9\---7-55555-77777--9\--|
|-7\---5------5-7\---5-33333-55555--7\--|


|---------------------------------------|
|---------------------------------------|
|----7\---------------------------------|
|--7-7\---7-9\---7-4x4x4x4-5-4x4x-4545--|
|--7-5\---7-9\---7-4x4x4x4-5-4x4x-4545--|
|--5------5-7\---5-2x2x2x2-3-2x2x-2323--|




Chorus:
-> 0:35

|BOTH GUITARS                                           |
|-------------------------------------------------------|
|-------------------------------------------------------|
|-777777---------------------777777---------------------|
|-777777-777777-999999999999-777777-777777-999999999999-|
|-555555-777777-999999999999-555555-777777-999999999999-|
|--------555555-777777777777--------555555-777777777777-|
                                                   ....

|----------------------------------------------|
|----------------------------------------------|
|-777777---------------------------------------|
|-777777-777777-----------------555555-444444--|
|-555555-777777-8/9-6/7-4/5-3/4-555555-444444--|
|--------555555-6/7-4/5-2/3-1/2-333333-222222--|




Solo:
-> 0:45

|GUITAR 1       wah wah pedal              |
|------------------------------------------|
|------------------------------------------|
|------------------------------------------|
|--------------------¿?--------------------|
|------------------------------------------|
|------------------------------------------|
|                                          |
|GUITAR 2                                  |
|------------------------------------------|
|------------------------------------------|
|----------777777-----------------7--------|
|-999999-7-777777-7-999999-7-5555-7-7------|
|-999999-7-555555-7-999999-7-5555-5-777777-|
|-777777-5--------5-777777-5-3333---555555-|
                                     ..... 


|GUITAR 1       wah wah pedal              |
|------------------------------------------|
|------------------------------------------|
|------------------------------------------|
|--------------------¿?--------------------|
|------------------------------------------|
|------------------------------------------|
|                                          |
|GUITAR 2                                  |
|------------------------------------------|
|------------------------------------------|
|----------777777-----------------7--------|
|-999999-7-777777-7-999999-7-5----7-7xxxxx-|
|-999999-7-555555-7-999999-7-5555-5-7xxxxx-|
|-777777-5--------5-777777-5-3333---5xxxxx-|
                             ...




Verse 2:
-> 0:57

|BOTH GUITARS                               |
|-------------------------------------------|
|-------------------------------------------|
|-----------7-xxxxx-------------------------|
|-9-xxxxx-7-7-xxxxx-7-9-xxxxx-7-55555-77777-|
|-9-xxxxx-7-5-xxxxx-7-9-xxxxx-7-55555-77777-|
|-7-xxxxx-5---------5-7-xxxxx-5-33333-55555-|


|----------------------------------------------------|
|----------------------------------------------------|
|-----------7-xxxxx----------------------------------|
|-9-xxxxx-7-7-xxxxx-7-9-xxxxx-7-4x4x4x4-5-4x4x-4545--|
|-9-xxxxx-7-5-xxxxx-7-9-xxxxx-7-4x4x4x4-5-4x4x-4545--|
|-7-xxxxx-5---------5-7-xxxxx-5-2x2x2x2-3-2x2x-2323--|





Chorus 2:
-> 1:10


|BOTH GUITARS                                           |
|-------------------------------------------------------|
|-------------------------------------------------------|
|-777777---------------------777777---------------------|
|-777777-777777-999999999999-777777-777777-99999999xxxx-|
|-555555-777777-999999999999-555555-777777-99999999xxxx-|
|--------555555-777777777777--------555555-77777777xxxx-|


|----------------------------------------------|
|----------------------------------------------|
|-777777---------------------------------------|
|-777777-777777-----------------555555-444444--|
|-555555-777777-8/9-6/7-4/5-3/4-555555-444444--|
|--------555555-6/7-4/5-2/3-1/2-333333-222222--|


|----------------------------------------------------------|
|----------------------------------------------------------|
|----------------------------------------------------------|
|-999999-777777-999999-777777-999999-777777-999999-777777--|
|-999999-777777-999999-777777-999999-777777-999999-777777--|
|-777777-555555-777777-555555-777777-555555-777777-555555--|





Bridge:
-> 1:26

|BOTH GUITARS                               |
|-------------------------------------------|
|-------------------------------------------|
|-------------------------------------------|
|-4x4x4x4-5-4x4x-4545--4x4x4x4-5-4x4x-4545--|
|-4x4x4x4-5-4x4x-4545--4x4x4x4-5-4x4x-4545--|
|-2x2x2x2-3-2x2x-2323--2x2x2x2-3-2x2x-2323--|


|GUITAR 1                                                       |
|---------------------------------------------------------------|
|---------------------------------------------------------------|
|-------------------------------------------------------4~--3~--|
|-4444-------------4444-------------4444---\--4-7-5-4---x---x---|
|-----444455555555-----444455555555-----44-\----7-5-4---2~--1~--|
|-----------------------------------------------5-3-2-----------|
| ................ ................ ......                      |
|GUITAR 2                                                       |
|---------------------------------------------------------------|
|---------------------------------------------------------------|
|---------------------------------------------------------------|
|-7777-------------7777-------------7777------9-7-5-4---5~--4~--|
|-5555777799999999-5555777799999999-55557777--9-7-5-4---5~--4~--|
|-----555577777777-----555577777777-----5555--7-5-3-2---3~--2~--|
  ................ ................ ........


|BOTH GUITARS:                                             |
|----------------------------------------------------------|
|----------------------------------------------------------|
|----------------------------------------------------------|
|-999999-777777-999999-777777-999999-777777-999999-777777--|
|-999999-777777-999999-777777-999999-777777-999999-777777--|
|-777777-555555-777777-555555-777777-555555-777777-555555--|




Ending:
-> 1:48

|BOTH GUITARS                |
|----------------------------|
|----------------------------|
|-7-------------7------------|
|-7-*-7---9-----7-*-7---9----|
|-5---7-*-9-*---5---7-*-9-*--|
|-----5---7---------5---7----|
                 

                            |GUITAR 1             |
|---------------------------|---------------------|
|---------------------------|---------------------|
|----777777-----------------|--4~-----7-6~--------|
|----777777-777777-9-7-5-4--|--x------x-x----7----|
|-\--555555-777777-9-7-5-4--|--2~-----5-4~---7-*--|
|-\---------555555-7-5-3-2--|----------------5----|
                            |GUITAR 2             |
                            |---------------------|
                            |---------------------|
                            |---------7-----------|
                            |--5~-----7-7~---7----|
                            |--5~-----5-7~---7-*--|
                            |--3~-------5~---5----|


|BOTH GUITARS:                                    |
|-------------------------------------------------|
|-------------------------------------------------|
|----------------------777777---------------------|
|-999999-777777-999999-777777-999999-777777-9\----|
|-999999-777777-999999-555555-999999-777777-9\----|
|-777777-555555-777777--------777777-555555-7\----|



\m/ (O_o) \m/
±PUNK 4 LIFE±
Добавлено: 18.03.2012
Другие материалы по этой песне:
  • Аккорды и текст

Страница создана 18.03.2012
http://primanota.ru/bigwig/a-war-inside-chords.htm
Привет, Гость.
Предлагаем пройти революционный курс по гитаре.
Подарок от PrimaNota.Ru, забирай!