PrimaNota.ru - самый крупный в мире бесплатный архив песенных текстов, аккордов, табулатур и нот


Big Wu - Take The World By Storm - бас-таба, видео

Регистрация Запомнить меня
Войти через:  Facebook Google Twitter Vk Yandex Mail.ru

Big Wu - Take The World By Storm - бас-таба, видео

Печатать
Просмотров: 146
Уроки эстрадного вокала в Санкт-Петербурге
the_big_wu/take_the_world_by_storm.btab

Basstab by Jan Bjorklund, Finland; 
jani_bjorklund@yahoo.se 
You are welcome to request for basstabs!
Bienvenidos a pedirme transcripciones para el bajo!
Be sure to use a monospaced font!

TablEdited by Jan Bjorklund for Mike
Tuning : E A D G 	Time Signature: 4/4

 tempo 113       |       |     I  learned how to dance the|        
|--------------------------------|--------------------------------|
|--------------------------------|5------------5------------------|
|--------------------------------|----------------5---------------|
|--------------------------------|--------------------------------|

 in a mystical   |       |        way     |       |       |        
|--------------------------------|--------------------------------|
|5-------4-------5-------5-------|--------------------------------|
|--------------------------------|----------------7---------------|
|--------------------------------|5----------------------------5--|

 |       |       |       |        |       |       |       |        
|--------------------------------|--------------------------------|
|--------------------------------|--------------------------------|
|--------7-------6-------5-------|----------------10--------------|
|5-------------------------------|8-----------------------9----8--|

 |       |       |       |        |       |       |       |        
|--------------------------------|--------------------------------|
|--------------------------------|--------------------------------|
|--------------------------------|10------------------------------|
|10--------------8-------10---8--|----------------10----------10--|

 |       |       |       |   Now  I can't heal the|       |        
|--------------------------------|--------------------------------|
|--------------------------------|-----------------------------5--|
|--------------------------------|------------5-------------------|
|10------8-------10/-8---2----0--|3-------------------------------|

 weak    |       |       |        |       |       |       |        
|--------------------------------|--------------------------------|
|5-------4-------5-------6-------|--------------------------------|
|--------------------------------|----------------7---------------|
|--------------------------------|5----------------------------5--|

 |       |       |       |        |       |       |       |        
|--------------------------------|--------------------------------|
|7-------------------------------|----------------5---------------|
|--------7-------6-------5----3--|3------------3----------4----3--|
|--------------------------------|--------------------------------|

 |       |       |       |        |       |       |       |        
|--------------------------------|--------------------------------|
|--------------------------------|5-------------------------------|
|5---------------3-------5-------|----------------5---------------|
|-----------------------------3--|-----------------------------3--|

 |       |       |       |        God told|Noah what he   |        
|--------------------------------|--------------------------------|
|--------------------------------|----------------7---------------|
|--------2-------3-------4----5--|5-------------------------------|
|3-------------------------------|-----------------------------5--|

 had to do       |       |        |       |       |       |        
|--------------------------------|--------------------------------|
|--------------------------------|5-------------------------------|
|5-------3-------2-------5-------|----------------5---------------|
|--------------------------------|-----------------------------3--|

 |       |       |       |        |       |       |       |        
|--------------------------------|--------------------------------|
|5-------------------------------|-------------7--7-------8-------|
|--------2-------3-------4----4--|5-------------------------------|
|--------------------------------|-------------5--5-------6-------|

 |       |       |       |        |       |       |       |        
|--------------------------------|--------------------------------|
|--------------------------------|----------------7---------------|
|------------6---9----x--9-------|7------------9----------10/-7---|
|7-------------------------------|--------------------------------|

 |       |       |       |        |       |       |       |        
|--------------------------------|--------------------------------|
|--------------------------------|--------------------------------|
|5-------------------------------|--------------------------------|
|----------------8------------8--|7------------7-------7/-----2---|

 if you don't stop your fighting  |       |       |       |        
|--------------------------------|--------------------------------|
|--------------------------------|----------------5---------------|
|----------------2---------------|-------------5----------2----5--|
|0--------------------0--2----2--|3-------------------------------|

 |       |       |       |        lighting|
     |       |        
|--------------------------------|--------------------------------|
|----------------4-------5----6--|7-------------------------------|
|5--------------------x----------|--------------------------------|
|--------------------------------|--------------------------------|

 |       |       And make|it      rain till you wish that you      
|--------------------------------|--------------------------------|
|--------------------------------|--------------------------------|
|--------------------------------|7-------------------------------|
|--------------------------------|----------------10--------------|

 |       |       |       |        drop.   |       |       |        
|--------------------------------|--------------------------------|
|--------------------------------|----------------7---7-------9---|
|--------------------------------|--------------------------------|
|9---------------8---8-----------|7-------------------------------|

 stop    |       |       |        Shut all|the windows    |        
|--------------------------------|--------------------------------|
|--------------------------------|--------------------------------|
|--------------------------------|----------------7---------------|
|------------------------10/--6--|5------------x----------6-------|

 |       |       |       |        |       |       |       |        
|--------------------------------|--------------------------------|
|--------------------------------|--------------------------------|
|----------------9----x--9-------|----------------7-----x---------|
|7------------x------------------|5------------x----------6-------|

 |       |       |       |        |       |       |       |        
|--------------------------------|--------------------------------|
|--------------------------------|--------------------------------|
|----------------9-------9/---6--|--------------------------------|
|7------------x------------------|5---------------7/----------2---|

 |       |       |       |        I'm just|about set      |        
|--------------------------------|--------------------------------|
|--------------------------------|--------------------------------|
|7----------------------------7--|--------------------------------|
|--------------------------------|7-------------------------------|

 to take the world by    |        storm  (|S O L O|)      |        
|--------------------------------|--------------------------------|
|--------------------------------|5-------------------------------|
|--------------------------------|----------------5---------------|
|--------------------------------|--------------------------------|

 |       |       |       |        |       |       |       |        
|--------------------------------|--------------------------------|
|--------------------------------|--------------------------------|
|3------------3--4----x----------|5-------------------------------|
|--------------------------------|----------------5---------------|

 |       |       |       |        |       |       |       |        
|--------------------------------|--------------------------------|
|--------------------------------|5-------------------------------|
|5-----------------------5-------|----------------5---------------|
|--------8-------7---------------|--------------------------------|

 |       |       |       |        |       |       |       |        
|--------------------------------|--------------------------------|
|--------------------------------|0------------7--7---------------|
|3------------3--4------------4--|-------------0--0------------0--|
|--------------------------------|--------------------------------|

 |       |       |       Well thisthis ancient recipe     |        
|--------------------------------|--------------------------------|
|--------------------------------|5-------------------------------|
|5-------3-------2-------5-------|-------------5--5-------5----x--|
|--------------------------------|--------------------------------|

 |       |       |       |        |       |       |       |        
|--------------------------------|--------------------------------|
|5-------4-------5-------6-------|------      and so on     ------|
|--------------------------------|--------------------------------|
|--------------------------------|--------------------------------|


Transcribe! 6.0 transcription http://www.seventhstring.demon.co.uk/
Created with TablEdit http://www.tabledit.com//


     
Добавлено: 28.10.2013
Другие материалы по этой песне:
  • Аккорды и текст

Страница создана 28.10.2013
http://primanota.ru/big-wu/take-the-world-by-storm-chords.htm
Привет, Гость.
Предлагаем пройти революционный курс по гитаре.
Подарок от PrimaNota.Ru, забирай!