PrimaNota.ru - самый крупный в мире бесплатный архив песенных текстов, аккордов, табулатур и нот


Big Wu - Kangaroo - таба, видео

Регистрация Запомнить меня
Войти через:  Facebook Google Twitter Vk Yandex Mail.ru

Big Wu - Kangaroo - таба, видео

Печатать
Просмотров: 90
Artist : The Big Wu
Song   : Kangaroo
Album  : Tracking Buffalo Through the Bathtub

Transcription by Aaron Hanusa on 7-30-2004
Send all comments to aaronh64@hotmail.com

Here it is Wu fans, enjoy...

Standard Tuning (E)


Tablature explanation
--------------------
B      Full Bend
b      1/2  Bend
r      Release
~~     Vibrato
/      Slide up
\      Slide down
h      Hammer-on
p      Pull-off


Intro: (Note: There are 2 guitars playing but only tabbed most audible)

Lightly mute strings with picking hand

|----------|------------(seven times)--------------|---------------------|
|----------|---------------------------------------|---------------------|
|----------|----6--4-----6--4-----4--6--4-----4----|--6-6--6-7-7--7-4----|
|----------|----------7--------7-----------7-------|---------------------|
|----------|---------------------------------------|---------------------|
|----------|---------------------------------------|---------------------|


Kangaroo! I'm way on the off track...

a e a d a e

Kangaroo! Jackrabbit in the bushwack...

a e a d a e a a7

Kangaroo it is so hard for you...

d e a d f#m e d g


|----------|------------(three times)--------------|---------------------|
|----------|---------------------------------------|---------------------|
|----------|----6--4-----6--4-----4--6--4-----4----|--6-6--6-7-7--7-4----|
|----------|----------7--------7-----------7-------|---------------------|
|----------|---------------------------------------|---------------------|
|----------|---------------------------------------|---------------------|


Kangaroo! you mean more to me ...

a e a d a e

Kangaroo! I read it in a book ...

a e a d a e a a7

Kangaroo it is so hard for you...

d e a d f#m e d g


Whistle Solo...


Rythym (and variations of this) played over piano solo and guitar solo

A - 3 times per measure   G - once per measure    A - once per measure
|----5-X-X-5-X-X-X-X-5-5--|-------3-X-X-X-X-------|--------7-7-(5)--------|
|--/-5-X-X-5-X-X-X-X-5-5--|-----/-3-X-X-X-X-------|--------5-5--5---------|
|--/-6-X-X-6-X-X-X-X-6-6--|-----/-4-X-X-X-X-------|--------6-6--6---------|
|--/-7-X-X-7-X-X-X-X-7-7--|-----/-5-X-X-X-X-------|--------7-7--7---------|
|-------------------------|-----------------------|-----------------------|
|-------------------------|-----------------------|-----------------------|


Guitar Solo :
First Measure
                                                        	    ~~~~
|-------------------------------------------------------------------------|
|---12B-12B----12r-p-10----10-----------------------12B-12B-12r-10-12-----|
|-----------------------11----11-p-9----9--------9------------------------|
|------------------------------------11---9-h-11--------------------------|
|-------------------------------------------------------------------------|
|-------------------------------------------------------------------------|


Second Measure

|--------------------------------------------------------------10-p-9-----|
|----------------12B-12B--12r-p-10----10-12-10---------10-h-12------------|
|-11-11-11-11-11-------------------11-----------9-h-11--------------------|
|-------------------------------------------------------------------------|
|-------------------------------------------------------------------------|
|-------------------------------------------------------------------------|

                            ~~~~
|--------------------------12---------------------------------------------|
|-12-p-10-12-12b-10-12B-12B--12r-10-12------------------------------------|
|-------------------------------------------------------------------------|
|-------------------------------------------------------------------------|
|-------------------------------------------------------------------------|
|-------------------------------------------------------------------------|


Third Measure

       ~~~~
|-12B-12----14-p-12----------12-------------------------------------------|
|------------------14-p-12-14--14--14-p-12-\-10-12b-10-12-10--------------|
|------------------------------------------------------------11-p-9-------|
|-------------------------------------------------------------------11-\--|
|-------------------------------------------------------------------------|
|-------------------------------------------------------------------------|

                                              ~~
|-------------------------------------------------------------------------|
|---------------------------9-10-12-14-15-16-17---------------------------|
|----------------------10-12----------------------------------------------|
|------------------9-11---------------------------------------------------|
|-9-p-7---7-9-/-11--------------------------------------------------------|
|-------9-----------------------------------------------------------------|
|-------------------------------------------------------------------------|


Fourth Measure
                               ~~~~~~~~~~~~~~~~~~~~~~~~~~~~~~~~~~
|-------17----17-19B-19B-19B-19B-19B-19B-19B-19B----19B-19B-19B-19B-------|
|--/-19----19-----------------------------------(17)----------------------|
|-------------------------------------------------------------------------|
|-------------------------------------------------------------------------|
|-------------------------------------------------------------------------|
|-------------------------------------------------------------------------|

            ~~
|-17----17-19-------------------------------------------------------------|
|----19-------------------------------------------------------------------|
|-------------------------------------------------------------------------|
|-------------------------------------------------------------------------|
|-------------------------------------------------------------------------|
|-------------------------------------------------------------------------|


Fifth Measure
                           ~
|-17-17-17-17-------------------------------------------------------------|
|-------------19-p-17----17--17-h-19-17-----------------------------------|
|---------------------18----------------18-\-16-p-14-16-16b-14---------14-|
|--------------------------------------------------------------14-h-16----|
|-------------------------------------------------------------------------|
|-------------------------------------------------------------------------|

                                                 ~                ~
|-------------------------------------------------------------------------|
|-----------------------------------------14-15-17--17-p-15-14-h-15--15-14|
|-----------------------------------14-16---------------------------------|
|16-p-14----------------------14-16---------------------------------------|
|--------16-\-14-p-12-14-/-16---------------------------------------------|
|-------------------------------------------------------------------------|


|-------------------------------------------------------------------------|
|-------------------------------------------------------------------------|
|-16B-p-14----14-16-------------------------------------------------------|
|----------16-------------------------------------------------------------|
|-------------------------------------------------------------------------|
|-------------------------------------------------------------------------|



Sixth Measure (Final)

|----17-------------------------------------------------------------------|
|-------------------------------------------------------------------------|
|-16B--16r-14----14-----------------14------------------------------------|
|-------------17----17------14-h-17----17-p-14----14-------------------14-|
|------------------------17--------------------17----14-/-16---/-16-17----|
|-------------------------------------------------------------------------|

                                             ~~~~~~~~
|-------------------------------------------------------------------------|
|-------------------------------------------------------------------------|
|----------------------14----14-16b-14-16B-16r-14-14----------------------|
|----------14----14-16----16----------------------------------------------|
|-17-/-16-----16----------------------------------------------------------|
|-------------------------------------------------------------------------|

End Solo

four measures
|----------|------------(three times)--------------|---------------------|
|----------|---------------------------------------|---------------------|
|----------|----6--4-----6--4-----4--6--4-----4----|--4-2--4-2--4-5------|
|----------|----------7--------7-----------7-------|---------------------|
|----------|---------------------------------------|---------------------|
|----------|---------------------------------------|---------------------|



Kangaroo it is so hard for you...

d e a d f#m e d a

Kangaroo please don't cry...

d e a d f#m e d g


|----------|------------(three times)--------------|---------------------|
|----------|---------------------------------------|---------------------|
|----------|----6--4-----6--4-----4--6--4-----4----|--4-2--4-2--4-5-6-\--|
|----------|----------7--------7-----------7-------|---------------------|
|----------|---------------------------------------|---------------------|
|----------|---------------------------------------|---------------------|



This is my first tab and quite possibly my last  wiping the sweat from my 
forehead> .....

_________________________________________________________________
     
Добавлено: 18.06.2013
Другие материалы по этой песне:
  • Аккорды и текст

Страница создана 18.06.2013
http://primanota.ru/big-wu/kangaroo-chords.htm
Привет, Гость.
Предлагаем пройти революционный курс по гитаре.
Подарок от PrimaNota.Ru, забирай!