PrimaNota.ru - самый крупный в мире бесплатный архив песенных текстов, аккордов, табулатур и нот


Big Wu - Boxingday - бас-таба, видео

Регистрация Запомнить меня
Войти через:  Facebook Google Twitter Vk Yandex Mail.ru

Big Wu - Boxingday - бас-таба, видео

Печатать
Просмотров: 82


big_wu/boxingday.btab


Basstab by Jan Bjorklund, Finland; 
jani_bjorklund@yahoo.se 
You are welcome to request for basstabs or standard notation 
Bienvenidos a pedirme transcripciones para el bajo 


TablEdited by Jan Bjorklund for Mike
Tuning : E A D G 	Time Signature: 2/4


 |       |        |       |        |       |        |       |        
|----------------|----------------|0---------------|----------------|
|-------eighteen bars intro-------|----------------|0---------------|
|---------- without bass ---------|----------------|----------------|
|----------------|----------------|----------------|----------------|

 |       |        |       |        |       |        |       |        
|2-----------2---|5---------------|0---------------|------------0/1-|
|----------------|----------------|----------------|0---------------|
|----------------|----------------|----------------|----------------|
|----------------|----------------|----------------|----------------|

 |       |        |       |        |       |        |       |        
|2-----2---------|----------------|0---------------|4---------------|
|------------3---|----3-----------|----------------|----------------|
|----------------|----------------|----------------|----------------|
|----------------|----------------|----------------|----------------|

 |       |        |       |        |       |        |       |        
|5---------------|2---------------|0---------------|------------0-0-|
|----------------|----------------|------------2-2-|0---------------|
|----------------|----------------|----------------|----------------|
|----------------|----------------|----------------|----------------|

 |       |        |       |        |       |        |       |        
|2-------2---2---|5---------------|--------7-------|--5---4-4---2---|
|----------------|----------------|0---------------|----------------|
|----------------|------------4---|----------------|0---------------|
|----------------|----------------|----------------|----------------|

 |       |        |       |        |       |        |       |        
|----------2-----|0---0---0-------|----------------|----------------|
|0---0---0-------|----------0-----|----------2-2---|3---3---3-------|
|----------------|--------------4-|3---3---3-------|----------2-2---|
|----------------|----------------|----------------|----------------|

 |       |        |       |        |       |        |       |        
|----------------|----------------|----------------|0---0-----------|
|--------0---2---|3---3-----------|--------0-3-----|--------0-0-----|
|3---3-----------|----------3-----|1---1-----------|------------3---|
|----------------|----------------|----------------|----------------|

 |       |        |       |        |       |        |       |        
|----------------|0---0---0-------|----------------|----------------|
|0---0---0-4-----|----------0-----|----------2-----|3---3---3-------|
|----------------|----------------|3---3---3-------|----------3-----|
|----------------|----------------|----------------|----------------|

 |       |        |       |        |       |        |       |        
|----------------|------------0---|----------------|----------------|
|----------------|1-------1-------|----------------|---and so on...-|
|1-------1---4/5-|----------------|0-------0---4---|----------------|
|----------------|----------------|----------------|----------------|


Transcribe  6.0 transcription http://www.seventhstring.demon.co.uk/
Created with TablEdit http://www.tabledit.com/

Добавлено: 11.12.2013
Другие материалы по этой песне:
  • Аккорды и текст

Страница создана 11.12.2013
http://primanota.ru/big-wu/boxingday-chords.htm
Привет, Гость.
Предлагаем пройти революционный курс по гитаре.
Подарок от PrimaNota.Ru, забирай!