PrimaNota.ru - самый крупный в мире бесплатный архив песенных текстов, аккордов, табулатур и нот


Big Wreck - That Song - аккорды и текст, таба, бас-таба, видео

Регистрация Запомнить меня
Войти через:  Facebook Google Twitter Vk Yandex Mail.ru

Big Wreck - That Song - аккорды и текст, таба, бас-таба, видео

Печатать
Просмотров: 215
Авторы музыки: Ian Thornley
Авторы текста: Ian Thornley
That Song
Big Wreck
		   m: ribeiros@planeteer.com

ARTIST: BIG WRECK
SONG TITLE: THAT SONG
TUNING: DROP-D & DOWN HALF A STEP (Low to High)Db-Ad-Db-Gb-Bb-Eb

I finally got some time to tab this amazing song out!!! (Plus I was just lazy!!!)
I haven't seen any tabs of it yet so here ya go, enjoy!!!!!!!!!!!!

*****************************************************************************
THERE IS NO STRUM TIME ON THIS TAB...LISTEN TO THE SONG TO GET THE STRUMMING
*****************************************************************************
Most of the song is here, except for the hammer-on/ pull-off heavy part.

CLEAN TONE:
|Eb|-------------------------------------------------------------------------
|Bb|-------------------------------------------------------------------------
|Gb|-11-11---11-11-11/14-14-14-13---13-13-11-11---11---11-11-11/14-14-14-13--
|Db|-0--0----0--0--0-----0--0--0----0--0--0--0----0----0--0--0-----0--0--0---
|Ab|-------------------------------------------------------------------------
|Db|-------------------------------------------------------------------------

---------------------------------------------------------------------------
---------------------------------------------------------------------------
13-13-11-------------------------------------------------------------------
0--0--0--11-11-12p11-11/14-14-14-12---12-12\11---11-11-12p11-11/14-14-14---
---------0--0--0-----0-----0--0--0----0--0-------0--0--0-----0-----0--0----
---------------------------------------------------------------------------

-----------||
-----------||
-----------||
12---12-12-||
0----0--0--||
-----------||

HEAVY PART: BIG ASS DISTORTION!!!!!!!!!!!!

Where you see 4b you have to bend the string first, then strike the note, then release the note.
That'll get you the right kinda sound!!! PALM MUTE ON THE OPEN STRINGS

||---------------------------------------0---------0-||
||---------------------------------------2---------2-||
||------------------------------------(2)----4b--2---||
||-0--------/11~~~-0------------/11~~~(2)--------2---||
||-0--------/11~~~-0------------/11~~~-0---------0---||
||-0--------/11~~~-0------------/11~~~---------------||
  PM              PM

For the heavy part, when he says "And now its over" you gotta hammer-on some chords...i haven't
totally figured that part just yet.

----------------------------------------------------0---------0-||
----------------------------------------------------2---------2-||
--------------------------------------------------2-----4b--2---||
x-x-0---2---4---7--/11~~~---0---2---4---7--/11~~~-2---------2---||
x-x-0---2---4---7--/11~~~---0---2---4---7--/11~~~-0---------0---||
x-x-0---2---4---7--/11~~~---0---2---4---7--/11~~~---------------||

CHOURS: CLEAN TONE
||------------------------------||
||-7-5-----7-3-----7-10-----7-5-||
||-6-4-----6-2-----6-9------6-4-||
||-4-2-----4-0-----4-7------4-2-||
||-4-2-----4-0-----4-7------4-2-||
||-4-2-----4-0-----4-7------4-2-||

INTERLUDE: BIG ASS DISTORTION ONCE AGAIN!!!!!!
||-------------------------------------------------------------------------
||-------------------------------------------------------------------------
||-------------------------------------------------------------------------
||-------------------------------------------------------------------------
||--11p9---11-9---11p9---11-9---11p9---11-9---11p9---11-9-0-11p9-0-11-9----
||0------0-------------0------0------0-------------0-----------------------

----------------------------------------||
----------------------------------------||
----------------------------------------||
----------------------------------------||
11p9-0-11-9-0-11p9-0-11-9---11p9-0-11-9-||
----------------------------------------||


QUESTIONS, COMMENTS...Mail me!!

Reuben
reuben.r@mailcity.com     
Добавлено: 25.11.2013
Другие материалы по этой песне:

Страница создана 01.04.2012
http://primanota.ru/big-wreck/that-song-chords.htm
Привет, Гость.
Предлагаем пройти революционный курс по гитаре.
Подарок от PrimaNota.Ru, забирай!