PrimaNota.ru - самый крупный в мире бесплатный архив песенных текстов, аккордов, табулатур и нот


Big Wreck - A Place To Call Home - таба, видео

Регистрация Запомнить меня
Войти через:  Facebook Google Twitter Vk Yandex Mail.ru

Big Wreck - A Place To Call Home - таба, видео

Печатать
Просмотров: 111
-------------------------------------------------------------------------------
                             A Place to Call Home - Big Wreck
-------------------------------------------------------------------------------
Tabbed by: TemNick
E-mail:

Tuning: DAFCGC

Intro

d|---------------------------------------------------------------------------|
A|---------------------------------------------------------------------------|
F|---------------------------------------------------------------------------|
C|-7~---7-8-7-10-8--7~----7-8-7-10-8-10--7~----------------------------------|
G|-5~---5-6-5--8-6--5~----5-6-5-8--6-8---5~----------------------------------|
C|-0~---------------0~-------------------0~----------------------------------|

d|---------------------------------------------------------------------------|
A|---------------------------------------------------------------------------|
F|-------------------------------------5~-------------------------------------|
C|-7-8-7-10-8---7~-----7-8-7-10-8-7/---5~-------------------------------------|
G|-5-6-5--8-6---5~-----5-6-5-8--6-5/---3~-------------------------------------|
C|--------------0~-----------------/------------------------------------------|

d|---------------------------------------------------------------------------|
A|---------------------------------------------------------------------------|
F|-------------------5~----------------------------5~------------------------|
C|---------8~---5~---5~---------------8~---5~------5~------------------------|
G|-7p8p7-0-8~---5~---3~------7p8p7-0--8~---5~--7b--3~------------------------|
C|---------8~---5~--------------------8~---5~--------------------------------|


d|---------------------------------------------------------------------------|
A|---------------------------------------------------------------------------|
F|-------------------5~------------------------------------------------------|
C|---------8~---5~---5~---------------8~---5~--------0~----------------------|
G|-7p8p7-0-8~---5~---3~------7p8p7-0--8~---5~--7b----0~----------------------|
C|---------8~---5~--------------------8~---5~--------0~----------------------|

Ian's voice starts. Repeat intro. When drums starts it's supposed to be like:

d|-----------------------------|
A|-----------------------------|
F|-----------------------------|
C|----------8~---5~------------|
G|-7p8p7-0--8~---5~------------|------> and it goes to chorus
C|----------8~---5~------------|

Chorus 

d|---------------------------------------------------|         ----------------
A|--6-6-6-6----2-2-2-2----10-10-10-10---13-13---8----|         ----6-6-6-6---2~
F|--5-5-5-5----3-3-3-3----9--9--9--9----12-12---7----|         ----5-5-5-5---3~
C|--3-3-3-3----0-0-0-0----7--7--7--7----10-10---5----| X4 then ----3-3-3-3---0~
G|--3-3-3-3----0-0-0-0----7--7--7--7----10-10---5----|         ----3-3-3-3---0~
C|--3-3-3-3----0-0-0-0----7--7--7--7----10-10---5----|         ----3-3-3-3---0~

Verse 1

d|------------------------------------------------------|         ----
A|------------------------------------------------------|         --2~
F|------------------------------------------------------|         --3~
C|------------------------------------------------------| X6 then --0~
G|--5-7-x-5-7-10---5p6p5-3---5-7-x-5-7-10---7p8p7~------|         --0~
C|--5-7-x-5-7-10-------------5-7-x-5-7-10---------------|         --0~

d|------------------------------------------------------|         
A|------------------------------------------------------|         
F|------------------------------------------------------|         
C|------------------------------------------------------|
G|--5-7-x-5-7-10---5p6p5-3---5-7-x-5-7-10---7p8p7~------|         
C|--5-7-x-5-7-10-------------5-7-x-5-7-10---------------|   

Chorus

Verse 2      

Chorus 

Repeat Intro till the end of the song

Ends with 

e|----3~---|
B|----6~---|
G|----5~---|
D|----3~---|
A|----3~---|
E|----3~---|



************************************

| /   slide up
| \   slide down
| h   hammer-on
| p   pull-off
| ~   vibrato
| +   harmonic
| x   Mute note
| b   Bend
| pb  Pre-bend
| br  Bend release
| pbr Pre-bend release
| brb Bend release bend

************************************
Добавлено: 03.07.2015
Другие материалы по этой песне:
  • Аккорды и текст

Страница создана 03.07.2015
http://primanota.ru/big-wreck/place-to-call-home-chords.htm
Привет, Гость.
Предлагаем пройти революционный курс по гитаре.
Подарок от PrimaNota.Ru, забирай!