PrimaNota.ru - самый крупный в мире бесплатный архив песенных текстов, аккордов, табулатур и нот


Big Wreck - How Would You Know - текст песни, таба, видео

Регистрация Запомнить меня
Войти через:  Facebook Google Twitter Vk Yandex Mail.ru

Big Wreck - How Would You Know - текст песни, таба, видео

Печатать
Просмотров: 189
Авторы музыки: Brian Doherty, Ian Thornley
Авторы текста: Ian Thornley
Big Wreck - How Would You Know
Tabbed by Dan Gebert
dgebertAThotmail.com
Open Gb: (Db,Gb,Db,Gb,Bb,Db)
Rhythms not provided, but its easy to figure them out by listening to
the album.

Intro (0:00) x2                            (0:16) x4
|--0--0--0--0--0--0-------0---------------|-----------5--|
|--12-10-10-8--7--5-------0---------------|-----------0--|
|--0--0--0--0--0--0--4p0--0------0--------|----4p0-0--0--|
|--0--0--0--0--0--0--x----0--4/5---4/5----|----x------5--|
|--12-11-10-9--7--5--4p0--0------------0--|--0-4p0-0-----|
|-----------------------------------------|--------------|

Verse (0:27)
|-------5-5-5-5-0-----------5-5-5-5-0------|
|-------0-0-0-0-0-5/7-------0-0-0-0-0-7\5--|
|--4p0--0-0-0-0-0-x-x--4p0--0-0-0-0-0-x-x--|
|--x----5-5-5-5-0-5/7--x----5-5-5-5-0-7\5--|
|--4p0----------0-5/7--4p0----------0-7\5--|
|------------------------------------------|

(1:00)           (1:23)
|---------------|-------------|--/3\0--|
|---------------|-------------|--/3\0--|
|------0--------|------3------|--/3\0--|
|----1---1---1--|----0---0----|--/3\0--|
|----------0----|--3----------|--/3\0--|
|--1------------|----------0--|--------|

(2:18) x2               (2:32)
|-------------------0--|-----------------------|
|-------------------0--|-----------------------|
|--------5-3------4-0--|-----0---0----0-etc..--|
|--1-3-5-x-x--2-4-x-0--|--12--12---12----------|
|--x-x-x-5-3--x-x-4-0--|-----------------------|
|--1-3-5------2-4------|-----------------------|

(2:35)
|--0--0--0--0--0--0--0--0---0--0--0--0--0--0--0--0--0h2--2-2-4-4--5--|
|--12-11-12-11-12-11-12-13--12-11-12-11-10-8--7--5--0h1--1-1-3-3--0--|
|--0--0--0--0--0--0--0--0---0--0--0--0--0--0--0--0--0-0--0-0-0-0--4--|
|--12-11-12-11-12-11-12-14--12-11-12-11-10-9--7--5--0h2--2-2-4-4--5--|
|-----------------------------------------------------------------0--|
|--------------------------------------------------------------------|

(3:19) 4x
|--------5-5-5-0-5-3--|
|--------0-0-0-0-5-3--|
|--4p0-0-0-0-0-0-5-3--|
|--x-0-0-5-5-5-0-5-3--|
|--4p0-0-0-0-0-0-5-3--|
|---------------------|
Добавлено: 19.05.2012
Другие материалы по этой песне:
  • Аккорды и текст

Страница создана 19.05.2012
http://primanota.ru/big-wreck/how-would-you-know-chords.htm
Привет, Гость.
Предлагаем пройти революционный курс по гитаре.
Подарок от PrimaNota.Ru, забирай!