PrimaNota.ru - самый крупный в мире бесплатный архив песенных текстов, аккордов, табулатур и нот


Big Tent Revival - Wheres The Passion - таба, видео

Регистрация Запомнить меня
Войти через:  Facebook Google Twitter Vk Yandex Mail.ru

Big Tent Revival - Wheres The Passion - таба, видео

Печатать
Просмотров: 94
		   ------------------------------------------------------
| Where's the Passion                                |
| by: Big Tent Revival                               |
| CD: Big Tent Revival                               |
| written by:  Steve Wiggins                         |
| from: carmond@latech.edu (Chad Armond)             |
| copyright: (C) 1994 Photon Music/BMI               |
------------------------------------------------------

(INTRO)
(REPEAT THIS PATTERN THROUGH VERSES)
Am  A2  F  Fmaj7
Am  A2  F  G

(VERSE 1)
HEY PEOPLE GATHER ROUND / COME SEE WHAT'S GOING DOWN
LISTEN CAN YOU HEAR / BROTHER? SISTER? (ENTER WAH AND DRUMS)
OH MY I SEE / PAIN AND MISERY / ALL MY HEART WANTS
IS SALVATION FOR EVERYONE

(CHORUS)
G              F                Am              D
I SEARCHED THE LAND FOR WILLING MAN AND I FOUND MANY
Am     G                  F                 E
ONE BY ONE THE HARD TIMES COME AND THEY ALL UP AND LEFT ME
Am          F         Am           F G
WHERE'S THE PASSION / WHERE'S THE . . . HEY HEY
Am          F         Am           F G
WHERE'S THE PASSION / WHERE'S THE . . . HEY HEY

(VERSE 2)
THERE I COME HERE I GO / ROCK OF AGES ROLLING STONE
TASTE MY LIPS AND HEAR ME ROAR / I'M TELLING YOU JUST ONCE MORE
IF YOU BELIEVE THEN TAKE YOUR CROSS 
BUT TAKE YOUR TIME AND COUNT THE COST
THEN IF YOU STILL KNOW FOR SURE / HANG ON CAUSE HERE WE GO


(SOLO)
 Am         F               Am          F  
e-------------------------------------------------------------------
B----------------------------------------(B)--(R)-------------------
G---------------(B)--(R)----------------9--(10)--9------------------
D-7--9--10-----9--(10)--9----7--9--10-------------------------------
A-----------8-------------------------------------------------------
E-------------------------------------------------------------------

  Am       F                   Am        F                        G
e----------------(B)--(R)------------------(B)---------(R)----------
B-10-12-13-----12---13---12----10-12-13--15---(17)-(17)---15--13--15
G----------10-------------------------------------------------------
D-------------------------------------------------------------------
A-------------------------------------------------------------------
E-------------------------------------------------------------------


      E A D G B e
Am    X O 2 2 1 O
A2    X O 2 2 O O
F     X X 3 2 1 1
Fmaj7 X X 3 2 1 O


---
Chad Armond
carmond@latech.edu
http://www.latech.edu/~carmond/

     
Добавлено: 03.07.2013
Другие материалы по этой песне:
  • Аккорды и текст

Страница создана 03.07.2013
http://primanota.ru/big-tent-revival/wheres-the-passion-chords.htm
Привет, Гость.
Предлагаем пройти революционный курс по гитаре.
Подарок от PrimaNota.Ru, забирай!