PrimaNota.ru - самый крупный в мире бесплатный архив песенных текстов, аккордов, табулатур и нот


Big Tent Revival - Thing Called Jesus - таба, видео

Регистрация Запомнить меня
Войти через:  Facebook Google Twitter Vk Yandex Mail.ru

Big Tent Revival - Thing Called Jesus - таба, видео

Печатать
Просмотров: 87
Уроки эстрадного вокала в Санкт-Петербурге
		   Thing Called Jesus
By: Big Tent Revival
Transcirbed by: Stephen Farrior (Castlef4@aol.com)


Key of A - Capo on 2
Guitar 1: Acoustic
Guitar 2: Electric

BOTH GUITARS ON INTRO: G D C G D C

(STARTS Guitar 1 only)
Don't come running to me with your half truth
Don't come running to me with your lies
Cause I've seen the liar and slipped through his eye tooth;
Pulled out by Jesus Christ (Guitar 2 Enters)
You've been pushing the spiritual nothing
Now I'm throwing it all away
Surely this whole thing has got to mean something.
Because it does to me

G                                                    C
This is more to me than just some story
G                                                    Am           B
This is more to me than just some song that I sing
I lay it on the line time after time after time after time
And they can't stop this thing
they can't stop this thing
They can't stop this thing called Jesus

You can put me in some kind of closet
But sooner or later He'll knock down the doors
You can slander my name if you want it
He will send another
and then there will be more

CHORUS

Guitar Solo (Maybe)

CHORUS (Just acoustic on first line)

                            At Entrance as indicated ^
F#--3--3--3--0--0--2--------0--0--------2--2--------3--------------3-------
C#--3--3--3--1--0--4--------0-----0-----3-----3-----0--------------1-------
A---0--0--2--2--0--4--------0--------0--2--------2--0--------------0-------
E---0--2--0--2--2--4--------2-----------0-----------0--------------2-------
B---2--3--0--0--2--2--------2-----------x-----------2--------------3-------
F#--3--x--x--x--0--x--------0-----------x-----------3--------------x-------
    G  C  D  Am Em B                                G repeatedly with C

    Chorus
F#--------3----------------------------------------------------------------
C#-----------1-----------------------------0-------------------------------
A---------------0-----------0-----------2----------------------------------
E------------------------2-----2--1--4-------------------------------------
B---------------------3----------------------------------------------------
F#-------------------------------------------------------------------------
    G  C           G                          Em    Am    Em    Am


F#-------------------------------------------------------------------------
C#-------------------------------------------------------------------------
A--------------------------------------------------------------------------
E--------------------------------------------------------------------------
B--------------------------------------------------------------------------
F#-------------------------------------------------------------------------
    G D C G D C G D C G

VERSE (with Guitar 2 on echo entrances)
CHORUS


F#-------------------------------------------------------------------------
C#-------------------------------------------------------------------------
A---------4--------------------------4-----4--5--4--2--0--5--4-------------
E------1-----5--5--5--5--4--2-----1-----5-----------------------1--1--3----
B---2--------------------------2-------------------------------------------
F#-------------------------------------------------------------------------
    SOLO


F#-------------------------------------------------------------------------
C#-------------------------------------------------------------------------
A--------------------------------------------------------------------------
E---1--0--5--4--7----------------------------------------------------------
B--------------------------------------------------------------------------
F#-------------------------------------------------------------------------


CHORUS
Guitar 1 only on first and second lines

Guitar 2 comes in with



F#-------------------------------------------------------------------------
C#-------------------------------------------------------------------------
A------------0-----------2--4----------------------------------------------
E---------2-----2--1--4----------------------------------------------------
B---12\3-------------------------------------------------------------------
F#-------------------------------------------------------------------------
                               and rest of normal 
     
Добавлено: 06.09.2013
Вам также может быть интересно:
Другие материалы по этой песне:
  • Аккорды и текст

Страница создана 06.09.2013
http://primanota.ru/big-tent-revival/thing-called-jesus-chords.htm
Привет, Гость.
Предлагаем пройти революционный курс по гитаре.
Подарок от PrimaNota.Ru, забирай!