PrimaNota.ru - самый крупный в мире бесплатный архив песенных текстов, аккордов, табулатур и нот


Big Sugar - The Scene - аккорды и текст, таба, видео

Регистрация Запомнить меня
Войти через:  Facebook Google Twitter Vk Yandex Mail.ru

Big Sugar - The Scene - аккорды и текст, таба, видео

Печатать
Просмотров: 155
The Scene
Big Sugar
Artist: Big Sugar
Tabber: Samuel Scheideman
Comments: This song rocks. I believe Gordie Johnson mostly uses a drop or open
tuning, but for this song I got it in standard. Its fairly accurete within reason.
E-mail addy: klayfeather@hotmail.com
v = left hand vibrato 

intro part 1
E------------------------------------
B------------------------------------
G------------------------------------
D-----------------------3--5---3--5--
A-------3--5--3--5-------------------
E------------------------------------
intro part 2 Heavy distortion
E-----------------------------------
B-----------------------------------
G-----------------------------------
D-----------------------------------
A-------3-h5—3-h5----8-h10---8-h10--
E-----------------------------------

These parts are the main riffs, use your own judgement as to were they should be

Riff2 Use this one in between  verses
                                        take a look at me...
E-------------------------------------|--5-2---
B-------------------------------------|--6-3---
G-----------------------------------*-|---------
D-------3h5--3h5------8h10---8h10-----|---------
A-------3h5--3h5------8h10---8h10---*-|---------
E-------------------------------------|---------
                                                 
Riff 3 Use this one during verses
E-|-----------------------------------------|-
B-|-----------------------------------------|-
G-|-*------------------------------------*--|-
D-|-----------------------------------------|-
A-|-*--3h5--3h5vvvv-----8h10---8h10vvvv--*--|-
E-|-----------------------------------------|-


oh, oh, oooh....               here I am I'm on the scene....
E---------------------------------------------------
B----8---x----8---/3--------------------------------
G-*--9---x----9---/4--*------7----------------------
D---10---x---10---/5---------7-------------------5--
A-*-10---x---10---/5--*------5-------------------5--
E----8---x----8---/3-----------------------------3--

  continued from above  
E---------------------------------------------------------------
B---------------------------------------------------------------
G-------------------------------------------7-------------------
D-------------------------------------------7----------------5--
A---3h5---3h5vvvv------8h10---8h10vvv-------5----------------5--
E------------------------------------------------------------3--

breakdown part
                                                lots of pick scraping and tremoloing on 12 e
E-------------------------------------------------------------12////---
B----------------------------------------------------------------------
G---5h7--5/7vvv----5h7--5/7vvv----5h7---5/7vvv-------------------------
D----------------------------------------------------------------------
A----------------------------------------------------------------------
E----------------------------------------------------------------------


solo
play twice      
E----------------------------------------------------------------
B----------------------------------------------------------------
G---12----12h14p12---10----10h12p10---9----9h10p9---7------------
D----------------------------------------------------------------
A----------------------------------------------------------------
E----------------------------------------------------------------
Play once
E---------------------------------------------------------------------------
B--13----13h15p13---12---12h13p12---10---10h12p10---8---13----13h15p13---12-
G---------------------------------------------------------------------------
D---------------------------------------------------------------------------
A---------------------------------------------------------------------------
E---------------------------------------------------------------------------
continued 
E-----------------
B-12h13p12---10--
G-----------------
D-----------------
A-----------------
E-----------------

Outro part
E---------------------------------------------------------------------------
B-13--15--13--15--1312/1312/1312-(0)--13--15--13--15---1312/1312-15-13-
G---------------------------------------------------------------------------
D---------------------------------------------------------------------------
A---------------------------------------------------------------------------
E---------------------------------------------------------------------------

E---------------14----------------------------------------------12////--
B-12----13--15-------15----1312/1312p0 13/12p0 13/12p0----------------
G-----------------------------------------------------------------------
D-----------------------------------------------------------------------
A-----------------------------------------------------------------------
E-----------------------------------------------------------------------
Second outro part
       Play this part lots                      
E--------------------------------------------
B--------10-x-10--(10)---------12p10vv-------
G--------10-x-10--(10)---------12p10vv-------
D--------10-x-10--(10)---5-------------------
A------------------------5-------------------
E------------------------3-------------------
Добавлено: 14.04.2012
Другие материалы по этой песне:
  • Аккорды и текст

Страница создана 14.04.2012
http://primanota.ru/big-sugar/the-scene-chords.htm
Привет, Гость.
Предлагаем пройти революционный курс по гитаре.
Подарок от PrimaNota.Ru, забирай!