PrimaNota.ru - самый крупный в мире бесплатный архив песенных текстов, аккордов, табулатур и нот


Big Sugar - Nicotina - таба, видео

Регистрация Запомнить меня
Войти через:  Facebook Google Twitter Vk Yandex Mail.ru

Big Sugar - Nicotina - таба, видео

Печатать
Просмотров: 99
Nicotina- Big Sugar
CD: Brothers & Sisters Are You Ready?
Tabber: Mitchell (Mitchell_J@hotmail.com)
Tuning: Dropped D (DADGBe)
x= scratch   p= pull off   /= slide   h= hammer on   ^&r= bend and release   V= vibrato

This has gotta be Big Sugar's coolest song.
The following tab is pretty simple, you just have to remember what parts go where.
I don't think there's anything to fix, but ya never know!

Intro, then main riff: "Light it up"
e -------------------------|------------------------------
B -------------------------|------------------------------
G -------------------------|------------------------------
D -x-5-5p0--7---7--x-5--0--|-5/7-7-7-7-7-7-7-7--x-5p0--0--
A -x-5-5p0--7---7--x-5--0--|-5/7-7-7-7-7-7-7-7--x-5p0--0--
D -x-5-5p0--7---7--x-5--0--|-5/7-7-7-7-7-7-7-7--x-5p0--0--

Verse:
e --------------------------------
B ----------------------------VV--
G ---------------------11/12--11--
D -5/7-7-7-7-7-7--x-x--x--x---x---
A -5/7-7-7-7-7-7--x-x--9/-10--9---
D -5/7-7-7-7-7-7--x-x-------------

Pre-chorus:
e -------------------------------------------------------------------------------
B -13-13-13-13-13-------13-13-13-13-13-------13-13-13-13-13------13-13-13-13-13--
G -x--x--x--x--x--------x--x--x--x--x--------x--x--x--x--x---^^--x--x--x--x--x---
D -10-10-10-10-10--x-x--10-10-10-10-10--x-x--10-10-10-10-10--12--10-10-10-10-10--
A -----------------x-x------------------x-x--------------------------------------
D -----------------x-x------------------x-x--------------------------------------

Instrumental Break (harmonica, and guitar solo):
e --------------------------------
B --------------------------------
G --------------------------------
D -5/7-7-7-7-7--5-5-5-5--0-0-0-0--
A -5/7-7-7-7-7--5-5-5-5--0-0-0-0--
D -5/7-7-7-7-7--5-5-5-5--0-0-0-0--

e -----------------------------------------------------------------------------
B -13-13-13-13-13-13-13-13-------------------13-13-13-13-13-13-13-13-----------
G -------------------------------------------------------------------------VV--
D --------------------------12h13p12-10-10---------------------------13h12p13--
A -----------------------------------------------------------------------------
D -----------------------------------------------------------------------------

e --------------------------------------^^&r------------------------
B 13-13-13-13-13-13-13-13---------------10--------------------------
G -------------------------------------------12-11-9----------------
D -------------------------13-12-10------------------12-11----------
A ----------------------------------12------------------------------
D ----------------------------------------------------------12-11/--

Outro: (has some soloing similar to the prior solo in between strumming)
e ----------------------------------------------11--8--
B ----------------------------------------------^^--^--
G -----------------------------------------------------
D -5/7-7-7-7-7-----5/7-7-7-7-7-----5/7-7-7-7-7---------
A -5/7-7-7-7-7-----5/7-7-7-7-7-----5/7-7-7-7-7---------
D -5/7-7-7-7-7-----5/7-7-7-7-7...--5/7-7-7-7-7---------

I won't get the end solo, because well... IT'S NOT EVEN IN THE VIDEO so... yeah.

Chords: D5: 000xxx   G5: 555xxx   A5: 777xxx

Tab originally from: http://diehardtabs.tripod.com
Добавлено: 11.07.2013
Другие материалы по этой песне:
  • Аккорды и текст

Страница создана 11.07.2013
http://primanota.ru/big-sugar/nicotina-chords.htm
Привет, Гость.
Предлагаем пройти революционный курс по гитаре.
Подарок от PrimaNota.Ru, забирай!