PrimaNota.ru - самый крупный в мире бесплатный архив песенных текстов, аккордов, табулатур и нот


Big Star - When My Babys Beside Me - текст песни, таба, видео

Регистрация Запомнить меня
Войти через:  Facebook Google Twitter Vk Yandex Mail.ru

Big Star - When My Babys Beside Me - текст песни, таба, видео

Печатать
Просмотров: 141
When My Babys Beside Me (Big Star)


intro
   G           F        C
e|------------------------------|
B|------------------------------|
G|------------------------------|
D|----0---0-----------0------0--|
A|------------------------------|
E|--3---3---3---0-1-3----0-3----|

Lead in Chord:

e[----------------------]
B[--6--6--6--6--6--6----]
G[--5--5--5--5--5--5----]
D[--7--7--7--7--7--7----]
A[----------------------]
E[----------------------]

Verses:

e[--1------------------------1--------------------]
B[--1--1--0--1--0--0--1------1--1--0--1--0--0-----]
G[--2--0--0--0--0--0--0------2--0--0--0--0--0-----]
D[--3--2--0--2--0--0--2------3--2--0--2--0--0-----]
A[--3------------------------3--------------------]
E[---------------------3-0-3-----------------3-0-3]

e[--1------------------------1-1--1-----0---------]
B[--1--1--0--1--0--0--1------1-1--1--0--1---------]
G[--2--0--0--0--0--0--0------2-2--2--0--0---------]
D[--3--2--0--2--0--0--2------3-3--3--0--2---------]
A[--3------------------------3-3--3-----3---------]
E[------------------------------------------------]

Chorus:

e[--1-1--0--3--0--3--3-3--3---]
B[--1-1--1--0--1--0--0-0--0---]
G[--2-2--0--0--0--0--0-0--0---] repeat as necessary
D[--3-3--2--0--2--0--0-0--0---]
A[--3-3--3--2--3--2--2-2--2---]
E[----------3-----3--3-3--3---]

Thats pretty much it listen to recording for rythym etc.

Lyrics:

Don't need to talk to my doctor
Don't need to talk to my shrink
Don't need to hide behind no locked doors
I don't need to think

'Cause when my baby's beside me, I don't worry
When my baby's beside me, All I know
When my baby's beside me, I don't worry
When my baby's beside me, All I know

Read all my books and talked about
Listen to my radio
Been to school and dropped right out
Tryin' to find out what I didn't know

But when my baby's beside me, I don't worry
When my baby's beside me, All I know
When my baby's beside me, I don't worry
When my baby's beside me, All I know

Don't need to talk to my doctor
Don't need to talk to my shrink
Don't need to hide behind no locked doors
I don't need to think

'Cause when my baby's beside me, I don't worry
When my baby's beside me, All I know
When my baby's beside me, I don't worry
When my baby's beside me, All I know
Добавлено: 09.06.2012
Другие материалы по этой песне:
  • Аккорды и текст

Страница создана 21.03.2012
http://primanota.ru/big-star/when-my-babys-beside-me-chords.htm
Привет, Гость.
Предлагаем пройти революционный курс по гитаре.
Подарок от PrimaNota.Ru, забирай!