PrimaNota.ru - самый крупный в мире бесплатный архив песенных текстов, аккордов, табулатур и нот


Big Star - ST 1006 - текст песни, таба, видео

Регистрация Запомнить меня
Войти через:  Facebook Google Twitter Vk Yandex Mail.ru

Big Star - ST 1006 - текст песни, таба, видео

Печатать
Просмотров: 89
Title: ST 100/6
Artist: Big Star
Album: #1 Record
Author: Bell, Chilton

Lead Guitar

E|------3---2-------------------|-5-5---5-5-5---5-7-------------|------3---2-------------------|
B|--------------3-------3-------|-5-5---5-5-5---5-----7-----7---|--------------3-------3-------|
G|------------------4-----------|-5-6---6-5-6---6-----7-----7---|------------------4-----------|
D|------------------------------|---------------------7-----7---|------------------------------|
A|------------------------------|-------------------------------|------------------------------|
E|-0------------------------0---|-------------------------------|-0------------------------0---|


E|-5------------------|------3---2-------------------|-5---------------------|
B|----------5---------|--------------3-------3-------|-----5-------7-----7---|
G|----------5-----5---|------------------4-----------|---------6---7-----7---|
D|--------------------|------------------------------|-------------7-----7---|
A|----------5-----5---|------------------------------|-----------------------|
E|-5------------------|-0------------------------0---|-----------------------|

|------3---2-------------------|
|--------------3-------3-------|
|------------------4-----------|
|------------------------------|
|------------------------------|
|-0------------------------0---|



E|-5-5---5-5-5---5-7-------------|------3---2-------------------|-5-5---5-5-5---5-7-------------|
B|-5-5---5-5-5---5-----7-----7---|--------------3-------3-------|-5-5---5-5-5---5-----7-----7---|
G|-5-6---6-5-6---6-----7-----7---|------------------4-----------|-5-6---6-5-6---6-----7-----7---|
D|---------------------7-----7---|------------------------------|---------------------7-----7---|
A|-------------------------------|------------------------------|-------------------------------|
E|-------------------------------|-0------------------------0---|-------------------------------|


E|---------------3-----|------3---2-------------------|-5-5---5-5-5---5-7-------------|
B|-----4---------------|--------------3-------3-------|-5-5---5-5-5---5-----7-----7---|
G|-----------4---------|------------------4-----------|-5-6---6-5-6---6-----7-----7---|
D|-4-------------------|------------------------------|---------------------7-----7---|
A|---------------------|------------------------------|-------------------------------|
E|---------------------|-0------------------------0---|-------------------------------|


E|------3---2-------------------|-5-5---5-5-5---5-7-------------|------3---2-------------------|
B|--------------3-------3-------|-5-5---5-5-5---5-----7-----7---|--------------3-------3-------|
G|------------------4-----------|-5-6---6-5-6---6-----7-----7---|------------------4-----------|
D|------------------------------|---------------------7-----7---|------------------------------|
A|------------------------------|-------------------------------|------------------------------|
E|-0------------------------0---|-------------------------------|-0------------------------0---|


E|-5-5---5-5-5---5-7-------------|---------------3-----|-----2--------------|--------|
B|-5-5---5-5-5---5---------------|-----4---------------|-3---3----2-----2---|-2------|
G|-5-6---6-5-6---6-----7-----7---|-----------4---------|-0---0----2-----2---|-2------|
D|---------------------7-----7---|-4-------------------|-2--------2-----2---|-2------|
A|-------------------------------|---------------------|----------0---------|--------|
E|-------------------------------|---------------------|--------------------|--------|


Rythm Guitar

E|------0--------0---0---0---|-------------0-2----2-2---2---0---|------0--------0---0---0---|
B|------3--------3---3---3---|-2---2---2---3-3----3-3---3---3---|------3--------3---3---3---|
G|------0----0---0---0---0---|-2---2---2---2-2----2-2---2---2---|------0----0---0---0---0---|
D|-2----2----2---2---2---2---|-2---2---2---0-0----0-0---0---0---|-2----2----2---2---2---2---|
A|-2----2----2---2---2---2---|-0---0---0------------------------|-2----2----2---2---2---2---|
E|-0----0----0---0---0---0---|----------------------------------|-0----0----0---0---0---0---|


E|----------5---------|------0--------0---0---0---|-------------0-2----2-2---2---0---|
B|----------5---------|------3--------3---3---3---|-2---2---2---3-3----3-3---3---3---|
G|-2--------5-----0---|------0----0---0---0---0---|-2---2---2---2-2----2-2---2---2---|
D|-2--------5-----0---|-2----2----2---2---2---2---|-2---2---2---0-0----0-0---0---0---|
A|-0---3----5---------|-2----2----2---2---2---2---|-0---0---0------------------------|
E|----------5---------|-0----0----0---0---0---0---|----------------------------------|


E|------0--------0---0---0---|-------------0-2----2-2---2---0---|------0--------0---0---0---|
B|------3--------3---3---3---|-2---2---2---3-3----3-3---3---3---|------3--------3---3---3---|
G|------0----0---0---0---0---|-2---2---2---2-2----2-2---2---2---|------0----0---0---0---0---|
D|-2----2----2---2---2---2---|-2---2---2---0-0----0-0---0---0---|-2----2----2---2---2---2---|
A|-2----2----2---2---2---2---|-0---0---0------------------------|-2----2----2---2---2---2---|
E|-0----0----0---0---0---0---|----------------------------------|-0----0----0---0---0---0---|


E|-------------0-2----2-2---2---0---|-----3-------3-------3-------3---|------0--------0---0---0---|
B|-2---2---2---3-3----3-3---3---3---|-----0-------0-------0-------0---|------3--------3---3---3---|
G|-2---2---2---2-2----2-2---2---2---|---------------------------------|------0----0---0---0---0---|
D|-2---2---2---0-0----0-0---0---0---|---------------------------------|-2----2----2---2---2---2---|
A|-0---0---0------------------------|-2---2---0---0-------------------|-2----2----2---2---2---2---|
E|----------------------------------|-----------------3---3---2---2---|-0----0----0---0---0---0---|


E|-------------0-2----2-2---2---0---|------0--------0---0---0---|-------------0-2----2-2---2---0---|
B|-2---2---2---3-3----3-3---3---3---|------3--------3---3---3---|-2---2---2---3-3----3-3---3---3---|
G|-2---2---2---2-2----2-2---2---2---|------0----0---0---0---0---|-2---2---2---2-2----2-2---2---2---|
D|-2---2---2---0-0----0-0---0---0---|-2----2----2---2---2---2---|-2---2---2---0-0----0-0---0---0---|
A|-0---0---0------------------------|-2----2----2---2---2---2---|-0---0---0------------------------|
E|----------------------------------|-0----0----0---0---0---0---|----------------------------------|


E|------0--------0---0---0---|-------------0-2----2-2---2---0---|-----3-------3-------3-------3---|
B|------3--------3---3---3---|-2---2---2---3-3----3-3---3---3---|-----0-------0-------0-------0---|
G|------0----0---0---0---0---|-2---2---2---2-2----2-2---2---2---|---------------------------------|
D|-2----2----2---2---2---2---|-2---2---2---0-0----0-0---0---0---|---------------------------------|
A|-2----2----2---2---2---2---|-0---0---0------------------------|-2---2---0---0-------------------|
E|-0----0----0---0---0---0---|----------------------------------|-----------------3---3---2---2---|


E|-----0-----------------|--------|
B|-3---3-----------------|--------|
G|-0---0---0---2-----2---|-2------|
D|-2---2---2---2-----2---|-2------|
A|-2---2---2---0-----0---|-0------|
E|-0---0---0-------------|--------|



Posting the best in Power Pop!!
Jimmy Curtis
Добавлено: 23.12.2013
Другие материалы по этой песне:

Страница создана 31.05.2012
http://primanota.ru/big-star/st-1006-chords.htm
Привет, Гость.
Предлагаем пройти революционный курс по гитаре.
Подарок от PrimaNota.Ru, забирай!