PrimaNota.ru - самый крупный в мире бесплатный архив песенных текстов, аккордов, табулатур и нот


Big Star - Shes A Mover - текст песни, таба, видео

Регистрация Запомнить меня
Войти через:  Facebook Google Twitter Vk Yandex Mail.ru

Big Star - Shes A Mover - текст песни, таба, видео

Печатать
Просмотров: 125
Band: Big Star
Song: She's a Mover
Album: Radio City
Year: 1974


Verse
e|-------------------------------------------|
B|-2--------3--------3---------3---3---3---3-|
G|-2--------2--------0---------0---0---2---2-|
D|-2--------0--------0---------0---0---0---0-|
A|-0----0--------0---------0-----------------|
E|-----0-—0-2---2—-2-3---3---3-3---3---2---2-|

e|-------------------------------------|
B|-------------------------------------|
G|-------------------------------------|
D|------2-----------------2------------|
A|--------2-5-4-2-----------2-5-4-2----|
E|-0-0-------------3-0-0-------------3-|

e|-------------------------------------|
B|-------------------------------------|
G|-------------------------------------|
D|------2-----------------2------------|
A|--------2-5-4-2-----------2-5-4-2----|
E|-0-0-------------3-0-0-------------3-|

Chorus
e|----------------------------------|
B|----------------------------------|
G|-----5-------5-------5-------5----|
D|-----4-------4-------4-------4----|
A|-5-5-5---5-5-5---5-5-5---5-5-5----|
E|----------------------------------|

e|----------------------------------|
B|----------------------------------|
G|-----7-------7-------7-------7----|
D|-----6-------6-------6-------6----|
A|-7-7-7---7-7-7---7-7-7---7-7-7----|
E|----------------------------------|

e|----------------------------------|
B|----------------------------------|
G|-----5-------5-------5-------5----|
D|-----4-------4-------4-------4----|
A|-5-5-5---5-5-5---5-5-5---5-5-5----|
E|----------------------------------|

e|---------------------------|
B|---------------------------|
G|-4---4-4-4---4-------------|
D|-4---4-4-4---4-------4-6-4-|
A|-2---2-0-2---2---5-6-------|
E|---------------------------|

e|---------------------------|
B|---------------------------|
G|-4---4-4-4---4-------------|
D|-4---4-4-4---4-------4-6-4-|
A|-2---2-0-2---2---5-6-------|
E|---------------------------|

Bridge

e||---------------------------------------||
B||---------------------------------------||
G||*-------------------------------------*||
D||*------2-----------------2------------*||
A||---------2-5-4-2-----------2-5-4-2-----||
E||--0-0-------------3-0-0-------------3--||


X4
e||---------------------------------------||
B||---------------------------------------||
G||*------2-----------------2------------*||
D||*------2-2-5-4-2---------2-2-5-4-2----*||
A||---------2-5-4-2--3--------2-5-4-2--3--||
E||--0-0-------------3-0-0-------------3--||

Instrumental Verse
e|-----------------------------|
B|-2-2-0---0-0-2-2-0---0-2-2---|
G|-2-2-0---0-0-2-2-0---0-2-2---|
D|-2-2-0---0-0-2-2-0---0-2-2---|
A|-0-0-0---0-0-0-0-0---0-0-0---|
E|-----------------------------|

e|--------------------------------|
B|--------------------------------|
G|-----2------2------2------------|
D|-----2------2------2—-----------|
A|----------------------5-4-2-----|
E|-0-0----0-0----0-0----------3---|

e|--------------------------------|
B|--------------------------------|
G|-----2------2------2------------|
D|-----2------2------2—-----------|
A|----------------------5-4-2-----|
E|-0-0----0-0----0-0----------3---|


e|-----------------------------------|
B|-2-2-0---0-0-2-2-0---0-2-2---0-0-0-|
G|-2-2-0---0-0-2-2-0---0-2-2---0-0-0-|
D|-2-2-0---0-0-2-2-0---0-2-2---0-0-0-|
A|-0-0-0---0-0-0-0-0---0-0-0---0-0-0-|
E|-----------------------------------|

e|-----------------------------------|
B|-2-2-0---0-0-2-2-0---0-2-2---0-0-0-|
G|-2-2-0---0-0-2-2-0---0-2-2---0-0-0-|
D|-2-2-0---0-0-2-2-0---0-2-2---0-0-0-|
A|-0-0-0---0-0-0-0-0---0-0-0---0-0-0-|
E|-----------------------------------|


(Verse)
She don't believe anything and she can
Dance oh now all night
So wild when she's a mover
She's so wild.

(Verse)
Draggin fast we go
Ooh I dig speed so good
It destroy her in the cruiser
It destroy her.

(Chorus)
She name was Marsha
Marsha the name
She look like a dove now
And when she smile like crocodile

(Verse)
She tells the man to go to hell
And where that's at is where I'm coming from
So wild ooh she's a mover.

(Verse)
She like devil you know
She finds herself in Catholic school
She's wild.

(Chorus)
She name was Marsha
Marsha the name
She look like a dove now
And when she smile like crocodile

(Bridge)

(Instrumental Verse)

(short solo- not tabbed here)

(fade out)
Добавлено: 28.07.2012
Другие материалы по этой песне:
  • Аккорды и текст

Страница создана 27.02.2012
http://primanota.ru/big-star/shes-a-mover-chords.htm
Привет, Гость.
Предлагаем пройти революционный курс по гитаре.
Подарок от PrimaNota.Ru, забирай!