PrimaNota.ru - самый крупный в мире бесплатный архив песенных текстов, аккордов, табулатур и нот


Big Soul - Love Crazy - аккорды и текст, таба, видео

Регистрация Запомнить меня
Войти через:  Facebook Google Twitter Vk Yandex Mail.ru

Big Soul - Love Crazy - аккорды и текст, таба, видео

Печатать
Просмотров: 236
Уроки эстрадного вокала в Санкт-Петербурге
Love Crazy
Big Soul
		   e: Tue, 01 Jan 1980 00:42:10 +0100

LOVE CRAZY
---------------------
Big Soul / Love Crazy (Kelleth Chinn/Caroline Wampole)

Transcribed by Stephane Francois (alain.francois@hol.fr)



Intro and outro:

---------------------------
---------------------------
--5-----4--5-----4--5------
--5-----4--5-----4--5------
--3-----2--3-----2--3------
--3--0--2--3--0--2--3------  I let you listen to the CD to find how many
				     times you should do it...

Main Riff

-------------------------------------------------------
---------------------2--0-------------------------2--0-
---------------------2--0-------------------------2--0-
-2-------0--0--0--0--2--0-----2-------0--0--0--0--2--0-
-2-------2--2--2--2-----------2-------2--2--2--2-------
-0-------3--3--3--3-----------0-------3--3--3--3-------


Here are the lyrics:

One, two, three, four


I never swore that i'd be true
so you played a little game of "I spite you"
Put your hand on your hip, gave it to me good
Cut me to the bone, Iknew that you would

	Well, now baby, you're making me love crazy
	G go on and play me

Thought a little bit of time would make it good again
thought i'd just step back and let you tell me when
but it just fanned the flame and it burned so bad
saw the smoke rise up from everything I had

	Well, now baby, you're making me love crazy
	G go on and play me

I want to sleep through the red sunrise
I want to cover my head and close my bleary eyes
Is it just a dream that I needed to see
Maybe I'll wake up and find you next to me

	Well, now baby, you're making me love crazy
	G go on and play me


And if you're a Big Soul fan, you can write me !!!!

Good luck !

 ----------------------
|        Steph         |
| alain.francois@hol.fr|
 ----------------------     
Добавлено: 31.10.2013
Вам также может быть интересно:
Другие материалы по этой песне:
  • Аккорды и текст

Страница создана 09.03.2012
http://primanota.ru/big-soul/love-crazy-chords.htm
Привет, Гость.
Предлагаем пройти революционный курс по гитаре.
Подарок от PrimaNota.Ru, забирай!