PrimaNota.ru - самый крупный в мире бесплатный архив песенных текстов, аккордов, табулатур и нот


Big Kid - What Kind Of Name Is - таба, видео

Регистрация Запомнить меня
Войти через:  Facebook Google Twitter Vk Yandex Mail.ru

Big Kid - What Kind Of Name Is - таба, видео

Печатать
Просмотров: 135
Band: Big Kid
Song: What Kind of Name is…
Album: You Must Be Kidding
Tabbed By: 0-52-A-50-R


Some Website Reference:

http://360.yahoo.com/profile-kJLZxxMzcqFUwwXQYpwYp0QgivA-

http://profile.myspace.com/index.cfmfuseaction=user.viewprofile&friendID=38208610

http://cdbaby.com/cd/bigkid


Intro: (0:00-0:12)

|----------------------------------------------------------------|
|----------------------------------------------------------------|
|----------------------------------------------------------------|
|3-3-3-3-3-3-3-3-4-4-4-4-4-4—4-4-3-3-3-3-3-3-3-3-4-4-4-4-4-4—4-4-|
|----------------------------------------------------------------|
|----------------------------------------------------------------|

|--------------------------------|
|--------------------------------|
|--------------------------------|
|3-3-3-3-3-3-3-3-4-4-4-4-4-4—4-4-|
|--------------------------------|
|--------------------------------|

|----------------------------------1------|
|--------------------------------1-2------|
|--------------------------------1--------|
|3-3-3-3-3-3-3-3-4-4-4-4-4-4—4-4----------|
|-----------------------------------------|
|-----------------------------------------|


Verse 1 (0:12-0:34)


|----1-----1-----1-----1-----1---1--1h2p1--|
|--2-----2---0-2-----2-----2---2-----------|
|1-----3-----------1-----3-----------------|
|------------------------------------------|
|------------------------------------------|
|------------------------------------------|


|----------------4-4-4-4-4-4-4-4-4---------|
|----------------4-4-4-4-4-4-4-4-4---------|
|4-4-4-4-3-3-3-3-5-5-5-5-5-5-5-5-5---------|
|2-2-2-2-1-1-1-1-6-6-6-6-6-6-6-6-6---------|
|2-2-2-2-1-1-1-1---------------------------|
|------------------------------------------|

Chorus (0:34-0:58)

|------------------------------------------|
|-----------------4--4-4--4-4-4-4----------|
|4--4-4--4-4-4-4--4--4-4--4-4-4-4----------|
|5--5-5-—5-5-5-5--4--4-4--4-4-4-4----------|
|5--5-5--5-5-5-5--2--2-2--2-2-2-2----------|
|3--3-3--3-3-3-3---------------------------|


|------------------------------------------|
|-----------------4--4-4--4-4-4-4----------|
|4--4-4--4-4-4-4--4--4-4--4-4-4-4----------|
|5--5-5-—5-5-5-5--4--4-4--4-4-4-4----------|
|5--5-5--5-5-5-5--2--2-2--2-2-2-2----------|
|3--3-3--3-3-3-3---------------------------|


|------------------------------------------|
|-----------------4--4-4--4-4-4-4----------|
|4--4-4--4-4-4-4--4--4-4--4-4-4-4----------|
|5--5-5-—5-5-5-5--4--4-4--4-4-4-4----------|
|5--5-5--5-5-5-5--2--2-2--2-2-2-2----------|
|3--3-3--3-3-3-3---------------------------|


|------------------------------------------|
|------------------------------------------|
|------------------------------------------|
|0-0-0-0-0-0-0-0---------------------------|
|1-1-1-1-1-1-1-1-1-1-1-1-1-1-1-1-----------|
|----------------2-2-2-2-2-2-2-2-----------|

|------------------------------------------|
|------------------------------------------|
|------------------------------------------|
|0-0-0-0-0-0-0-0---------------------------|
|1-1—1-1-1-1-1-1-1-1-1-1-1-1-1-1-----------|
|----------------2-2-2-2-2-2-2-2-----------|

|--------------------------------------------------1------|
|------------------------------------------------1-2------|
|------------------------------------------------1-1------|
|0-0-0-0-0-0-0-0------------------------------------------|
|1-1-1-1-1-1-1-1-3-3-3-3-3-3-3-3-5-5-5-5-5-5-5-5----------|
|----------------4-4-4-4-4-4-4-4-3-3-3-3-3-3-3-3----------|

Verse 2 (0:58-1:20)


|----1-----1-----1-----1h2p1---------------|
|--2-----2---0-2---0-2---------------------|
|1-----3-----------------------------------|
|------------------------------------------|
|------------------------------------------|
|------------------------------------------|

|----1-------1-----1-------1----------------|
|--2---2---2-----2---2---2---2--------------|
|1-------1-----3-------3--------------------|
|-------------------------------------------|
|-------------------------------------------|
|-------------------------------------------|


|----------------4-4-4-4-4-4-4-4-4---------|
|----------------4-4-4-4-4-4-4-4-4---------|
|4-4-4-4-3-3-3-3-5-5-5-5-5-5-5-5-5---------|
|2-2-2-2-1-1-1-1-6-6-6-6-6-6-6-6-6---------|
|2-2-2-2-1-1-1-1---------------------------|
|------------------------------------------|


Chorus (1:20-1:42)

|------------------------------------------|
|-----------------4--4-4--4-4-4-4----------|
|4--4-4--4-4-4-4--4--4-4--4-4-4-4----------|
|5--5-5-—5-5-5-5--4--4-4--4-4-4-4----------|
|5--5-5--5-5-5-5--2--2-2--2-2-2-2----------|
|3--3-3--3-3-3-3---------------------------|


|------------------------------------------|
|-----------------4--4-4--4-4-4-4----------|
|4--4-4--4-4-4-4--4--4-4--4-4-4-4----------|
|5--5-5-—5-5-5-5--4--4-4--4-4-4-4----------|
|5--5-5--5-5-5-5--2--2-2--2-2-2-2----------|
|3--3-3--3-3-3-3---------------------------|

|------------------------------------------|
|-----------------4--4-4--4-4-4-4----------|
|4--4-4--4-4-4-4--4--4-4--4-4-4-4----------|
|5--5-5-—5-5-5-5--4--4-4--4-4-4-4----------|
|5--5-5--5-5-5-5--2--2-2--2-2-2-2----------|
|3--3-3--3-3-3-3---------------------------|


|------------------------------------------|
|------------------------------------------|
|------------------------------------------|
|0-0-0-0-0-0-0-0---------------------------|
|1-1-1-1-1-1-1-1-1-1-1-1-1-1-1-1-----------|
|----------------2-2-2-2-2-2-2-2-----------|

|------------------------------------------|
|------------------------------------------|
|------------------------------------------|
|0-0-0-0-0-0-0-0---------------------------|
|1-1—1-1-1-1-1-1-1-1-1-1-1-1-1-1-----------|
|----------------2-2-2-2-2-2-2-2-----------|

|--------------------------------------------------1------|
|------------------------------------------------1-2------|
|------------------------------------------------1-1------|
|0-0-0-0-0-0-0-0------------------------------------------|
|1-1-1-1-1-1-1-1-3-3-3-3-3-3-3-3-5-5-5-5-5-5-5-5----------|
|----------------4-4-4-4-4-4-4-4-3-3-3-3-3-3-3-3----------|


Solo (1:42-2:05)

*To be honest I can't tell whether there's guitar in here or not......... it just sounds 
a bunch of noise but I'm sure there's gotta be some guitar in there...maybe?*


Chorus (2:05-2:38)

|------------------------------------------|
|-----------------4--4-4--4-4-4-4----------|
|4--4-4--4-4-4-4--4--4-4--4-4-4-4----------|
|5--5-5-—5-5-5-5--4--4-4--4-4-4-4----------|
|5--5-5--5-5-5-5--2--2-2--2-2-2-2----------|
|3--3-3--3-3-3-3---------------------------|


|------------------------------------------|
|-----------------4--4-4--4-4-4-4----------|
|4--4-4--4-4-4-4--4--4-4--4-4-4-4----------|
|5--5-5-—5-5-5-5--4--4-4--4-4-4-4----------|
|5--5-5--5-5-5-5--2--2-2--2-2-2-2----------|
|3--3-3--3-3-3-3---------------------------|

|------------------------------------------|
|-----------------4--4-4--4-4-4-4----------|
|4--4-4--4-4-4-4--4--4-4--4-4-4-4----------|
|5--5-5-—5-5-5-5--4--4-4--4-4-4-4----------|
|5--5-5--5-5-5-5--2--2-2--2-2-2-2----------|
|3--3-3--3-3-3-3---------------------------|


|---------------------------------------|
|----3--------3--------3---------3h4p3—-|
|--3---3----3---3----3---3-----3--------|
|3--------4--------3---------4----------|
|---------------------------------------|
|---------------------------------------|

|---------------------------------------|
|----3--------3--------3---------3h4p3--|
|--3---3----3---3----3---3-----3--------|
|3--------4--------3---------4----------|
|---------------------------------------|
|---------------------------------------|

|---------------------------------------|
|----3--------3--------3---------3h4p3--|
|--3---3----3---3----3---3-----3--------|
|3--------4--------3---------4----------|
|---------------------------------------|
|---------------------------------------|


|-----------------------------------------|
|----3--------3h4p3----------3---------3--|
|--3---3----3--------3-----3---3-----3----|
|3--------4-------------3---------4-------|
|-----------------------------------------|
|-----------------------------------------|


Outro (2:38-END)

|-----------------------------------------------|
|--------------------------------4-4-4-4-4-4-4--|
|3-3-3-3-3-3-3-3-----------------3-3-3-3-3-3-3--|
|0-0-0-0-0-0-0-0-0-0-0-0-0-0-0-0-3-3-3-3-3-3-3--|
|1-1-1-1-1-1-1-1-1-1-1-1-1-1-1-1----------------|
|----------------2-2-2-2-2-2-2-2----------------|


|-----------------------------------------------|
|--------------------------------4-4-4-4-4-4-4--|
|3-3-3-3-3-3-3-3-----------------3-3-3-3-3-3-3--|
|0-0-0-0-0-0-0-0-0-0-0-0-0-0-0-0-3-3-3-3-3-3-3--|
|1-1-1-1-1-1-1-1-1-1-1-1-1-1-1-1----------------|
|----------------2-2-2-2-2-2-2-2----------------|

|-----------------------------------------------|
|--------------------------------4-4-6-7-9------|
|3-3-3-3-3-3-3-3-----------------3-3-5-6-8------|
|0-0-0-0-0-0-0-0-0-0-0-0-0-0-0-0-3-3-5-6-8------|
|1-1-1-1-1-1-1-1-1-1-1-1-1-1-1-1----------------|
|----------------2-2-2-2-2-2-2-2----------------|


|-----------------------------------------------|
|--------------------------------4-4-4-4-4-4-4--|
|3-3-3-3-3-3-3-3-----------------3-3-3-3-3-3-3--|
|0-0-0-0-0-0-0-0-0-0-0-0-0-0-0-0-3-3-3-3-3-3-3--|
|1-1-1-1-1-1-1-1-1-1-1-1-1-1-1-1----------------|
|----------------2-2-2-2-2-2-2-2----------------|


Fade Out while playing those over and over


*Since this is the first tab of this song and it's not a very popular song feel free to 
as easy on me as you'd like ;) *
Добавлено: 01.04.2012
Другие материалы по этой песне:
  • Аккорды и текст

Страница создана 01.04.2012
http://primanota.ru/big-kid/what-kind-of-name-is-chords.htm
Привет, Гость.
Предлагаем пройти революционный курс по гитаре.
Подарок от PrimaNota.Ru, забирай!