PrimaNota.ru - самый крупный в мире бесплатный архив песенных текстов, аккордов, табулатур и нот


Big Head Todd & The Monsters - It's Alright - текст песни, бас-таба, видео

Регистрация Запомнить меня
Войти через:  Facebook Google Twitter Vk Yandex Mail.ru

Big Head Todd & The Monsters - It's Alright - текст песни, бас-таба, видео

Печатать
Просмотров: 141
Hey all.

I won't be cocky and say this is 100% accurate.  I am well aware that it isn't.  And if 
have corrections please post them.

Big Head Todd and the Monsters
Song:   It's Alright
Album:  Sister Sweetly

Key of E Major


Verse 1  &  2
       E  B       F#  C#
G|--------------------------------------------------------------|
D|--------------------------------------------------------------|
A|---------------------4-4-2h4p2--------------0h4-444-2h4p2-----|
E|---------7-7-7-702----------------7-7-70-2--------------------|
B|--2/-5--------------------------45--------------------------4-|


                                              It's
G|----------------------------------------------------|
D|----------------------------------------------------|
A|----------------4-4-2h4p2---------------------------|
E|-----7-7-7-702-----------------7-7-7-702--5-2-4h5p4-|
B|5---4-----------------------45----------------------|


Chorus
G|------------------------------------------------------------|
D|-----------------------------------------------14--14-------|
A|----------------444-R---------------------14h16--16---1614\-|
E|------7-7-7-702--------------7-7-7-702----------------------|
B|5----4----------------2h4h5---------------------------------|


G|------------------------------------------------------|
D|-------------------14--14-----------------------------|
A|--------------14h16--16---1614/-----------------------|
E|---7-7-7-702-----------------------7-7-7-705--2-4-2-5-|
B|5-------------------------------5---------------------|

VERSE 2-  SAME AS VERSE 1

Chorus 2
G|---------------------------------------------------------|
D|-----------------------------------------------13/14~~~~-|
A|----------------444-R---------------------14h16----------|
E|------7-7-7-702--------------7-7-7-7014------------------|
B|5----4----------------2h4h5------------------------------|


G|---------------------------------------------------------|
D|---------------------------------------------------------|
A|-----------------------6h7/9\7------------2h4-4444-4p2---|
E|-----7-7-7-702-----4h5---------7-7-7-702--------------4--|
B|5---4----------2-2---------------------------------------|


BRIDGE
G|---------------------------------------------------|
D|---------------------------------------------------|
A|---------------------------------------------------|
E|777-77-777--77--999-99-9\12-9-7h9p7--5---55--0--00-|
B|---------------------------------------------------|


G|--------------------------------------------------|
D|--------------------------------------------------|
A|--------------------------------------------------|
E|777-77-777--77--999-99-9\12-9-7h9p7--5---55--7-77-|
B|--------------------------------------------------|


G|-------------------------------------------------|
D|-------------------------------------------------|
A|--------------------DRUM-------------------------|
E|--77-77-77-7505-7-----ROLL-----------------------|
B|-------------------------------------------------|


SOLO

G|-------------------9-----------------------------|
D|---------------9h11------------------------------|
A|-------------------------7-----------------------|
E|----7-7-7-7014--------7h9--9-7-0-----------------|
B|5------------------------------------------------|

G|-------------------------------------------------------|
D|-------------------------------------------------------|
A|-------------------------------------------------------|
E|----7-7-7-702-24-45-54-2-4h5p4----77777-705--2-2-2-2-2-|
B|5-----------------------------4h5--------------3-3-3-3-|

G|-------------------------------------------------|
D|-------------------------------------------------|
A|-------------------------------------------------|
E|-------7-7-7-7-7--0-2--45-5-5-5-4-5--------------|
B|0h4h5----5-5-5-5--------5-5-5-5------------------|


VERSE 3
G|-----------------------------------------------------|
D|-----------------------------------------------------|
A|----------------4-4-2h4p2-------------------4--7-----|
E|-----7-7-7-702-----------------7-7-7-705---------7---|
B|5---4-----------------------5----------------------5-|

G|----------------------------------------------------|
D|----------------------------------------------------|
A|----------------4-4-2h4p2---------------------------|
E|-----7-7-7-702-----------------7-7-7-702--5-2-4h5p4-|
B|5---4-----------------------45----------------------|


CHORUS 3
G|-----------------------------------------------------|
D|-----------------------------------------------------|
A|----------------444-R----------------------7-7-------|
E|------7-7-7-702--------------7-7-7-702--7h9-9---9-7/-|
B|5----4----------------2h4h5--------------------------|

G|-------------------------------------------------------|
D|-------------------------------------------------------|
A|-----------------------7h9/11-7------------------------|
E|----7-7-7-70-2-2-2--7h9----------7-7-7-702---5---4h5p5-|
B|5--------------3-3-------------------------------------|

OUTRO
G|---------------------------------------------------------|
D|---------------------------------------------------------|
A|---------------------------------------------7h9p7-------|
E|------77777-05--2-2-2--4h5p4----7-7-7-7---7h9-----7------|h9p7/
B|5----4------------3-3-------4h5--------------------------|

G|-------------------------------------------------|
D|-------------------------------------------------|
A|-------------------------------------------------|
E|0---7-7-7-702--5-5-4h5p4-------------------------|
B|------------------------5------------------------|
Добавлено: 26.04.2012
Другие материалы по этой песне:
  • Аккорды и текст

Страница создана 06.04.2012
http://primanota.ru/big-head-todd-and-the-monsters/its-alright-chords.htm
Привет, Гость.
Предлагаем пройти революционный курс по гитаре.
Подарок от PrimaNota.Ru, забирай!