PrimaNota.ru - самый крупный в мире бесплатный архив песенных текстов, аккордов, табулатур и нот


Big Foot Mama - Tatoo - таба, видео

Регистрация Запомнить меня
Войти через:  Facebook Google Twitter Vk Yandex Mail.ru

Big Foot Mama - Tatoo - таба, видео

Печатать
Просмотров: 235
Band / Artist : big foot mama
Song title : tatoo
Tabbed by : Mihec
E-mail : Mkoros19@volja.net
Home page : www.trzalica.com

Intro

e-------------------|
B-------------------|
G-7-9~-----7-9-7----|
D----------------7~-|
A-------------------|
E-------------------| 2x

Verse 1
C                   Am   C               Am
Dons je otožna scena, dons je čist tak dan.
C                   Am   C               Am
Pogled je slep vmes pa stena, sanjam, ja priznam.
C               Am     Dsus2     Am
Radio pa rola vedno en in ist komad,
C               Am     C         Am
mene dvigajo hormoni, spet je tle pomlad.


e---------------------------------------|
B-------------------------8-------------|
G-7-9~-----7-9-7------7-9---9~-7-9-7----|
D----------------7~------------------7~-|
A---------------------------------------|
E---------------------------------------|

Verse 2

In ko te na cesti srečam v soncu nocnih lamp.
Vedno mal blefiras vem, da furas body - pump.
In ko mi pogleg uide s hrbta dol na bok,
Mi pr tem en mal zaide v smeri kjer je rob.

Chours

F                  D           Am
Na dnu, na dnu pa vidm tvoj tatoo.
F                  D           Am
Na dnu, na ndu še nižje od pasu.
F                  D           Am
Na dnu, na dnu pa vidm tvoj tatoo.
F                  D           Am
Na dnu, na ndu še nižje od pasu.

intro...

Verse 3

Spet sm sam in v spominu nos'm ves tvoj lik
Nezno ti odpenjam krilo cut'm vsak dotik
In ko se s poljubi spuscam s hrbta dol, na bok
Takr't se dvignejo hormoni vem, da bliz'je rob.


Dsus2 F
e-0---8-------|
B-3---10------|
G-2---10------|
D-0---10------|
A-----8-------|
E-------------|
Добавлено: 26.02.2012
Другие материалы по этой песне:
  • Аккорды и текст

Страница создана 26.02.2012
http://primanota.ru/big-foot-mama/tatoo-chords.htm
Привет, Гость.
Предлагаем пройти революционный курс по гитаре.
Подарок от PrimaNota.Ru, забирай!