PrimaNota.ru - самый крупный в мире бесплатный архив песенных текстов, аккордов, табулатур и нот


Big Foot Mama - Crn Tulipan - таба, видео

Регистрация Запомнить меня
Войти через:  Facebook Google Twitter Vk Yandex Mail.ru

Big Foot Mama - Crn Tulipan - таба, видео

Печатать
Просмотров: 219
Уроки эстрадного вокала в Санкт-Петербурге
-------------------------------------------------------------------------------
                             CRN TULIPAN - Big Foot Mama
-------------------------------------------------------------------------------

Band/Artist: Big Foot Mama
Song: Crn Tulipan
Album: Kva se dogaja?
Tabbed by:d1kobraz
Home page: matty.breg.si.
 
Intro:

e|-----------------------------|----------------------------------------------|
B|-----------------------------|----------------------------------------------|
G|-----------------------------|Se--------------------------------------------|
D|-2-2-4-2---X-2-2-4-2---------|ponavlja--------------------------------------|
A|-0-0-0-0---X-0-0-0-0---------|----------------------------------------------|
E|-----------------------------|----------------------------------------------|
............PM..............

Na koncu kitice:
e|---7--7-------------------|---5---5-----------------7---7---------------------|
B|---7-----7--------(=------|---7------7--------------7-----7-------(=----------|
G|---7--------7-----Prvic---|---7---------7-----------7-------7-----Drugic------|
D|---9-----------9--(=------|---7------------7--------9---------9---(=----------|
A|---9----------------------|-5-----------------------9-------------------------|
E|-7------------------------|------------------------7--------------------------|

Chours:
e|------------------------------|---2-------2---------------2------------------|
B|--------3-2-0--3-2-0----------|---2-------3---------------2------------------|
G|------------------------2-----|---2-------4-------1-------2------------------|
D|-0-2--------------------------|---4-------4-------2-------4------------------|
A|-0-0--------------------------|---4-------2-------2-------4------------------|
E|------------------------------|---2-----------------------2------------------|
fis h E fis

After chours play this:
e|-----------------------------------------------------------------------------|
B|---8---8---8-------4x--------------------------------------------------------|
G|---8b-8b--8b-----------------------------------------------------------------|
D|-----------------------------------------------------------------------------|
A|-----------------------------------------------------------------------------|
E|-----------------------------------------------------------------------------|

Solo:

e|--14---14--------------------------------------------------------------------|
B|--14b--14b14--12-14----12-11-12-14-12-11----12-------------------------------|
G|-------------------------------------------------------13----13-11-13--------|
D|-----------------------------------------------------------------------------|
A|-----------------------------------------------------------------------------|
E|-----------------------------------------------------------------------------|

e|------------|-------14----14----14---------------------------------------------------------|
B|-----12-14--|--14b---14b--14b---14b14---12-11-12-14-12-11---12-----------------------------|
G|-13---------|------------------------------------------------------------13--13-11-13------|
D|------------|------------------------------------------------------------------------------|
A|------------|------------------------------------------------------------------------------|
E|------------|------------------------------------------------------------------------------|

e|-------------16~~--16p14-----21~~----21-19---19-------------------------------|
B|----12-14-------------------16-------------------21---21-19-21----------------|
G|-13---------------------------------------------------------------------------|
D|------------------------------------------------------------------------------|
A|------------------------------------------------------------------------------|
E|------------------------------------------------------------------------------|

e|--16---14------------------------------------------|----------------------------14------|
B|-------------16-14-16-14---------14b---------------|------------------------14b--14-----|
G|------------------------------16-13------16-13-----|--13-16-13--13-16-------------------|
D|---------------------------------------------------|-------------16---------------------|
A|---------------------------------------------------|------------------------------------|
E|---------------------------------------------------|------------------------------------|

e|------------------|-------------------|------------------|--------------14--------|
B|--16--------------|--16---------------|--16--------------|-------14b------14------|
G|--16--13----13----|--16--13----13-----|--16--13----13----|---16-------------------|
D|-----------16-----|-----------16------|----------16------|------------------------|
A|------------------|-------------------|------------------|------------------------|
E|------------------|-------------------|------------------|------------------------|

e|-------------------|------------------|----------------------------------------|
B|-16----------------|-16---------------|----------14-16-14----------------------|
G|-16--13-----13-----|--16--13---13-----|-------16------------16-----------------|
D|-----------16------|----------16------|---18--------------------18-------------|
A|-------------------|------------------|----------------------------------------|
E|-------------------|------------------|----------------------------------------|

e|---------------------------------------------------------------------------|
B|-----------14--16--14------------------------------------------------------|
G|------16-----------------16-------13~~~~-----------------------------------|
D|--18--------------------------16-------------------------------------------|
A|---------------------------------------------------------------------------|
E|---------------------------------------------------------------------------|

Thanks for your rating and comments =P

| /  slide up
| \  slide down
| h  hammer-on
| p  pull-off
| ~  vibrato
| +  harmonic
| x  Mute note
===============================================================================
Добавлено: 21.04.2012
Другие материалы по этой песне:
  • Аккорды и текст

Страница создана 21.04.2012
http://primanota.ru/big-foot-mama/crn-tulipan-chords.htm
Привет, Гость.
Предлагаем пройти революционный курс по гитаре.
Подарок от PrimaNota.Ru, забирай!