PrimaNota.ru - самый крупный в мире бесплатный архив песенных текстов, аккордов, табулатур и нот


Big Foot Mama - Brez Meja - таба, видео

Регистрация Запомнить меня
Войти через:  Facebook Google Twitter Vk Yandex Mail.ru

Big Foot Mama - Brez Meja - таба, видео

Печатать
Просмотров: 197
Hi! Before you guys say anything, these tabs are 100% correct. 
If you have any questions, send me a private massage or 
send me an e-mail on 
guitardomen@hotmail.com

Have fun!


__________________________________________________________________________

INTRO: 2x  (00:00 - 00:21)

e|----------------------------------------------------|
B|----------------------------------------------------|
G|----------------------------------------------------|
D|-7--7-------------------------7--7------------------|
A|-7--7-------3-5----3-5-3------7--7---------5^--5-3--|
E|-5--5---3-5--------------5-3--5--5---8-5-55---------|
 

e|-----------------------------------------------------------|
B|-----------------------------------------------------------|
G|-----------------------------------------------------------|
D|-7--7-------------------------7--7-------------------------|
A|-7--7-------3-5----3-5-3------7--7---------2--2--2---------|
E|-5--5---3-5--------------5-3--5--5---8-5---0--0--0-3-0-4-0-|
    


VERSE 1: with whammy  (00:21 - 00:41)

Tko govori, tko se smeji
Da me v globinah trga
Mi um temni
A ko pride cas, da utrgam plaz
Mi svoj pogled umakne
In zniza glas


   |---------2x---------|
e|--------------------------5-5--------5-5--------5-5------------------------------------|
B|---------------------------------------------------------------------------------------|
G|---------------------------------------------------------------------------------------|
D|------------------------------------------------------------7-5---5--------------------|
A|-7------5-3-7----------7------5-3-7----------7------5-3-7-------7---7-3^(full bend)----|
E|-5----------5------3-4-5----------5------3-4-5----------5------------------------------|
     


Pre-VERSE 2:  (00:41 - 00:51)

e|----------------------------------------------------|
B|----------------------------------------------------|
G|----------------------------------------------------|
D|-7--7-------------------------7--7------------------|
A|-7--7-------3-5----3-5-3------7--7---------5^--5-3--|
E|-5--5---3-5--------------5-3--5--5---8-5------------|
     
e|-----------------------------------------------------------|
B|-----------------------------------------------------------|
G|-----------------------------------------------------------|
D|-7--7-------------------------7--7-------------------------|
A|-7--7-------3-5----3-5-3------7--7---------2--2--2---------|
E|-5--5---3-5--------------5-3--5--5---8-5---0--0--0-3-0-4-0-|
   


VERSE 2: with whammy bar  (00:52 - 01:12)

Nad njo visi svetniski sij
V crno-beli barvi
Gleda stvari
Ona ne ve, do kje nj gre
Dokler ji ne razkrijem
Svoje srce

Palm muted here
   |---------3x---------|
e|----5-5--------5-5--------5-5----------------------------|
B|---------------------------------------------------------|
G|---------------------------------------------------------|
D|-------------------------------------------7-5---5-------|
A|-7------5-3-7----------7------5-3-77777777-----7---7-3^--|
E|-5----------5------3-4-5----------55555555---------------|
       

2nd guitar
   |--------4x-------|
e|---------------------------------------------------------|
B|-10-10-10-9---------13--13-------------------------------|
G|---------------------------------------------------------|
D|----------------------------10------10------10------10---|
A|---------------------------------------------------------|
E|---------------------------------------------------------|
             


CHORUS 1:  (01:12 - 01:41)

 A          D       A   F# G G# A
Men pa ne sedejo naveze
         D            A   F# G G# A
Svet je lepsi brez meja
         D           A   F# G G# A
In nima veze, ce so veze
          C           D
clovk je rojen, da izziva
        G    G#   A
In z moralo se igra

   |--------------3x---------------|
   A     D          A      F# G  G# A     C     D     G  G# A
e|-------------------------------------------------------------------|
B|-------------------------------------------------------------------|
G|-------7-7--7--7-----------------------------------------(14)------|
D|-7--7--7-7--7--7--7--7---4--5--6--7--7--5--5--7--7--5--6--7--------|
A|-7--7--5-5--5--5--7--7---4--5--6--7--7--3--3--5--5--5--6--7--------|
E|-5--5-------------5--5---2--3--4--5--5--3--3--5--5--3--4--5--------|
                                                             ~~~~~~~~

VERSE 3: with whammy bar  (01:42 - 02:04)

Njo ful mori, ker ve da ni
Le ena in edina
Sej to se ni noben javni raj
Le zanjo je ovira
Ne vem zakaj

           |------------------------2x-------------------------|

e|-5-5--5-----5-5--------5-5--------5-5------------------------|
B|------5-------------------------------------8h10-8-----------|
G|------5--------------------------------------------9p7-------|
D|--------------------------------------------------------7-7v-|
A|---------7------5-3-7----------7------5-3-7------------------|
E|---------5----------5------3-4-5----------5------------------|
      

2nd guitar
e|---------|
B|-5^------|
G|-5^------|
D|---------|
A|---------|
E|---------|


CHORUS 2:  (02:04 - 02:24)

 A          D       A   F# G G# A
Men pa ne sedejo naveze
         D            A   F# G G# A
Svet je lepsi brez meja
         D           A   F# G G# A
In nima veze, ce so veze
          C           D
clovk je rojen, da izziva
        G    G#   A
In z moralo se igra

   |--------------3x---------------|
   A     D          A      F# G  G# A     C     D     G  G#
e|----------------------------------------------------------|
B|----------------------------------------------------------|
G|-------7-7--7--7------------------------------------------|
D|-7--7--7-7--7--7--7--7---4--5--6--7--7--5--5--7--7--5--6--|
A|-7--7--5-5--5--5--7--7---4--5--6--7--7--3--3--5--5--5--6--|
E|-5--5-------------5--5---2--3--4--5--5--3--3--5--5--3--4--|


Pre-CHORUS 3:  (02:25 - 02:45)

e|----------------------------------------------------|
B|----------------------------------------------------|
G|----------------------------------------------------|
D|-7--7-------------------------7--7------------------|
A|-7--7-------3-5----3-5-3------7--7---------5^--5-3--|
E|-5--5---3-5--------------5-3--5--5---8-5------------|
     

e|-----------------------------------------------------------|
B|-----------------------------------------------------------|
G|-----------------------------------------------------------|
D|-7--7-------------------------7--7-------------------------|
A|-7--7-------3-5----3-5-3------7--7---------2--2--2---------|
E|-5--5---3-5--------------5-3--5--5---8-5---0--0--0-3-0-4-0-|
    

CHORUS 3:  (02:45 - 03:07)

 A          D       A   F# G G# A
Men pa ne sedejo naveze
         D            A   F# G G# A
Svet je lepsi brez meja
         D           A   F# G G# A
In nima veze, ce so veze
         C           D
Clovk je rojen, da izziva
        G    G#   A
In z moralo se igra

   |--------------3x---------------|
   A     D          A      F# G  G# A     C     D     G  G# A    E
e|-----------------------------------------------------------------|
B|-----------------------------------------------------------------|
G|-------7-7--7--7-------------------------------------------------|
D|-7--7--7-7--7--7--7--7---4--5--6--7--7--5--5--7--7--5--6--7-7-\2-|
A|-7--7--5-5--5--5--7--7---4--5--6--7--7--3--3--5--5--5--6--7-7-\2-|
E|-5--5-------------5--5---2--3--4--5--5--3--3--5--5--3--4--5-5-\0-|
                                                            
Добавлено: 12.03.2012
Другие материалы по этой песне:
  • Аккорды и текст

Страница создана 12.03.2012
http://primanota.ru/big-foot-mama/brez-meja-chords.htm
Привет, Гость.
Предлагаем пройти революционный курс по гитаре.
Подарок от PrimaNota.Ru, забирай!