PrimaNota.ru - самый крупный в мире бесплатный архив песенных текстов, аккордов, табулатур и нот


Big Drill Car - 16 Lines - таба, видео

Регистрация Запомнить меня
Войти через:  Facebook Google Twitter Vk Yandex Mail.ru

Big Drill Car - 16 Lines - таба, видео

Печатать
Просмотров: 118
INTRO
e-|------------------------------------------------------------------|-
B-|------------------------------------------------------------------|-
G-|-0-/-2----12--14----------7-------2------0—2---------7-------2----|-
D-|-0-/-2--------------------7---5---2------------------7---5---2----|-
A-|-0-/-0--------------------5---5---0------------------5---5---0----|-
E-|------------------------------3--------------------------3--------|-
               [ph] \n/                      [ph] \n/

Verse
e-|-----------------------------------------------------------------|-
B-|-----------------------------------------------------------------|-
G-|--------------------------10---9---------------------------------|-
D-|--7-----5-----4-----3-----10---9---------------------------------|-
A-|--7-----5-----4-----3-----8----7---------------------------------|-
E-|--5-----3-----2-----1--------------------------------------------|-
This was on my mind, Mind.
More than just one time, One time.
All of us did night rides, Rides.
All got me uptight. Uptight.
Upti-i-ght...

REPEAT INTRO (x2)
Whoa-oh...Whoa-oh-oh...Yeah.
VERSE
e-|-----------------------------------------------------------------|-
B-|-----------------------------------------------------------------|-
G-|--------------------------10---9---------------------------------|-
D-|--7-----5-----4-----3-----10---9---------------------------------|-
A-|--7-----5-----4-----3-----8----7---------------------------------|-
E-|--5-----3-----2-----1--------------------------------------------|-
When separates divide, Divide.
Because of black and white, And white.
Man that just ain't right. Right.
Why they so uptight? Uptight.
Upti-i-ght...

REPEAT INTRO (x2)
Whoa-oh...Whoa-oh-oh...Yeah.

CHORUS
e-|---------------------------------------------------|----------------|-
B-|-----------12------------------------------------o-|---------12--12-|-
G-|-----------9------2--2--------7--7-----------------|---------12--12-|-
D-|--2--2--2---------2--2--2--2--7--7--5--5--7--7-----|-2--2--2--------|-
A-|--2--2--2---------0--0--2--2--5--5--5--5--7--7---o-|-2--2--2--------|-
E-|--0--0--0---------------0--0--------3--3--5--5-----|-0--0--0--------|-
16 lines is what I had,
And let me tell you, little brothers,
Would you like it in a bag?
She could never find the time,
Or give to me what was mine.
I can never understand
The reasoning behind the crueller man.
I can never tell her the things that I know.
That I know.

e-|-----------------------------------------------------------------|-
B-|-----------------------------------------------------------------|-
G-|--------------------10---9---------------------------------------|-
D-|--7-----5-----4-----10---9---------------------------------------|-
A-|--7-----5-----4-----8----7---------------------------------------|-
E-|--5-----3-----2--------------------------------------------------|-

16 lines, 16 li-i-ines.

OUTRO
e-|-----------------------------------------------------------------|-
B-|-----------------------------------------------------------------|-
G-|--7-/--9---7--6--5-----------------------------------------------|-
D-|--5-/--7---5--4--3-----------------------------------------------|-
A-|-----------------------------------------------------------------|-
E-|-----------------------------------------------------------------|-
Добавлено: 28.03.2012
Другие материалы по этой песне:
  • Аккорды и текст

Страница создана 28.03.2012
http://primanota.ru/big-drill-car/16-lines-chords.htm
Привет, Гость.
Предлагаем пройти революционный курс по гитаре.
Подарок от PrimaNota.Ru, забирай!