PrimaNota.ru - самый крупный в мире бесплатный архив песенных текстов, аккордов, табулатур и нот


Big Deal - Call And Ill Come - таба, видео

Регистрация Запомнить меня
Войти через:  Facebook Google Twitter Vk Yandex Mail.ru

Big Deal - Call And Ill Come - таба, видео

Печатать
Просмотров: 165
-------------------------------------------------------------------------------
                             Big Deal- Call and I'll Come Inro
-------------------------------------------------------------------------------
Tabbed by: maiacatherine

Tuning:Standard

e|---------------------------------------------------------------------------|
B|---------------------------------------------------------------------------|
G|------------------------------------2-----4-----------2-----5--4--3--------|
D|---------4--5--------------4--/5--3-----3-----3--3--3-----3----------------|
A|----2----------------2-----------------------------------------------------|
E|-3----3--------3--3-----3--------------------------------------------------|

So, this is my first tab to submit, and I'm a complete novice, but I play a 
classical instrument so the tuning may be a little off. Submit any corrections
and I will fix it. This is just the intro, and if you know the chords etc.
to the rest of the song, please tell!


************************************

| /   slide up
| \   slide down
| h   hammer-on
| p   pull-off
| ~   vibrato
| +   harmonic
| x   Mute note
| b   Bend
| pb  Pre-bend
| br  Bend release
| pbr Pre-bend release
| brb Bend release bend

************************************
Добавлено: 11.06.2015
Другие материалы по этой песне:
  • Аккорды и текст

Страница создана 11.06.2015
http://primanota.ru/big-deal/call-and-ill-come-chords.htm
Привет, Гость.
Предлагаем пройти революционный курс по гитаре.
Подарок от PrimaNota.Ru, забирай!