PrimaNota.ru - самый крупный в мире бесплатный архив песенных текстов, аккордов, табулатур и нот


Big D And The Kids Table - Wailing Paddle - текст песни, таба, бас-таба, видео

Регистрация Запомнить меня
Войти через:  Facebook Google Twitter Vk Yandex Mail.ru

Big D And The Kids Table - Wailing Paddle - текст песни, таба, бас-таба, видео

Печатать
Просмотров: 182
-------------------------------------------------------------------------------
                    Wailing Paddle – Bid D and the Kids Table
-------------------------------------------------------------------------------
Tabbed by: Nancy Musinguzi
Email: nancegotpants@yahoo.com

Tuning: EBGDAE

This is such a good song, I don't know why no one has tabbed it yet. Well, here it is, I 
include the strumming and timing, you'll have to listen to the song for it or you can 
it out on your own. Either way, this is still a really good song. Enjoy!

 INTRO
e|------------------------------------|-3--3--7--7/8---8---1--1---------|
B|------------------------------------|-5--5--9--9/10--10--1--1---------|
G|------------------------------------|-5--5--9--9/10--10--2--2---------| Repeatx2
D|------2--------------2--------------|-5--5—-9--9/10--10--3--3---------|
A|--3------0-------3-------0----------|-3--3--7--7/8---8---3--3---------|
E|-------------1----------------1-----|--------------------1--1---------|

  VERSE
e|-3--3--7--7/8---8---1--1--1-1-|
B|-5--5--9--9/10--10--1--1--1-1-|
G|-5--5--9--9/10--10--2--2--2-2-| x8
D|-5--5—-9--9/10--10--3--3--3-3-|
A|-3--3--7--7/8---8---3--3--3-3-|
E|--------------------1--1--1-1-|
                            ^ v
  CHORUS
e|---------------------------------------|
B|---------------------------------------|
G|--5--------9---------------------------| x4
D|--5--(x6)--9--(x6)---7--------3--------|
A|--3--------7---------7--(x6)--3--(x6)--|
E|---------------------5--------1--------|

  CHORUS (continued)
e|---------------------------------------------------------------------------|
B|---------------------------------------------------------------------------|
G|--10-------9-------7-------5----------------------5------------------------|
D|--10-(x6)--9-(x6)--7-(x6)--5-(x6)--8-8-8-8-8--7-8-5--5-5-5-5-5-5-5-5-5-----| x2
A|--8--------7-------5-------3-------8-8-8-8-8--7-8-3--5-5-5-5-5-5-5-5-5-----|
E|-----------------------------------6-6-6-6-6--5-6----3-3-3-3-3-3-3-3-3-----|
                                       . . . .           . . .   . . .
 CHORUS (still continued)
e|-3--3--7--7/8---8---1--1--1-1-|
B|-5--5--9--9/10--10--1--1--1-1-|
G|-5--5--9--9/10--10--2--2--2-2-| x4
D|-5--5—-9--9/10--10--3--3--3-3-|
A|-3--3--7--7/8---8---3--3--3-3-|
E|--------------------1--1--1-1-|
                            ^ v

VERSE
e|-3--3--7--7/8---8--8---1--1--1-1-|
B|-5--5--9--9/10--10-10--1--1--1-1-|
G|-5--5--9--9/10--10-10--2--2--2-2-| x8
D|-5--5—-9--9/10--10-10--3--3--3-3-|
A|-3--3--7--7/8---8--8---3--3--3-3-|
E|-----------------------1--1--1-1-|
                               ^ v

  CHORUS
e|---------------------------------------|
B|---------------------------------------|
G|--5--------9---------------------------| x2
D|--5--(x6)--9--(x6)---7--------3--------|
A|--3--------7---------7--(x6)--3--(x6)--|
E|---------------------5--------1--------|

  CHORUS (continued)
e|---------------------------------------------------------------------------|
B|---------------------------------------------------------------------------|
G|--10-------9-------7-------5----------------------5------------------------|
D|--10-(x6)--9-(x6)--7-(x6)--5-(x6)--8-8-8-8-8--7-8-5--5-5-5-5-5-5-5-5-5-----| x2
A|--8--------7-------5-------3-------8-8-8-8-8--7-8-3--5-5-5-5-5-5-5-5-5-----|
E|-----------------------------------6-6-6-6-6--5-6----3-3-3-3-3-3-3-3-3-----|
                                       . . . .           . . .   . . .
  BRIDGE
e|---------------------------------------------------------------------------|
B|---------------------------------------------------------------------------|
G|-5----4---------5----7---9---5---7---9----7---10----10---9----12-----------|
D|-5----4----7----5----7---9~--5---7---9~---7---10~---10---9~---12~----------|
A|-3----2----7~---3----5---7---3---5---7----5---8-----8----7----10-----------|
E|-----------5---------------------------------------------------------------|

After guitar break...

 BRIDGE (continued)
e|-3--3--7--7/8---8---1--1--1-1-|
B|-5--5--9--9/10--10--1--1--1-1-|
G|-5--5--9--9/10--10--2--2--2-2-| x4
D|-5--5—-9--9/10--10--3--3--3-3-|
A|-3--3--7--7/8---8---3--3--3-3-|
E|--------------------1--1--1-1-|
                            ^ v

 OUTRO
e|-3--3--7--7/8---8--5--1--1--1---|
B|-5--5--9--9/10--10-5--1--1--1---|
G|-5--5--9--9/10--10-6--2--2--2---|
D|-5--5—-9--9/10--10-7--3--3--3---|
A|-3--3--7--7/8---8--7--3--3--3---|
E|-------------------5--1--1--1---|
                        v  v  v

e|-3--3--7--7/8---8---1--1--1-1-|
B|-5--5--9--9/10--10--1--1--1-1-|
G|-5--5--9--9/10--10--2--2--2-2-| x3
D|-5--5—-9--9/10--10--3--3--3-3-|
A|-3--3--7--7/8---8---3--3--3-3-|
E|--------------------1--1--1-1-|
                            ^ v

e|--3-----3--|
B|--5-----5--|
G|--5-----5--|
D|--5-~---5~-|
A|--3-----3--|
E|-----------|

e|--3--|
B|--5--|
G|--5--|
D|--5~-|
A|--3--|
E|-----|

THE END.

| /  slide up
| \  slide down
| h  hammer-on
| p  pull-off
| ~  vibrato
| +  harmonic
| x  Mute note
===============================================================================
Добавлено: 01.04.2012
Другие материалы по этой песне:
  • Аккорды и текст

Страница создана 01.04.2012
http://primanota.ru/big-d-and-the-kids-table/wailing-paddle-chords.htm
Привет, Гость.
Предлагаем пройти революционный курс по гитаре.
Подарок от PrimaNota.Ru, забирай!