PrimaNota.ru - самый крупный в мире бесплатный архив песенных текстов, аккордов, табулатур и нот


Big D And The Kids Table - The One - бас-таба, видео

Регистрация Запомнить меня
Войти через:  Facebook Google Twitter Vk Yandex Mail.ru

Big D And The Kids Table - The One - бас-таба, видео

Печатать
Просмотров: 68
This is my first tab. I learned this song by ear because there were no tabs
uploaded, some parts like the bridge and outro may not be 100% accurate but
I play and have tabbed what I hear.
G-----------------------------------------------------|
D-----------------------------------------------------|
A-5---5---3---3---------------------------------------|
E-----------------------------------------------------|

Chorus
G-----------------------------------------------------|
D-----------------------------------------------------|
A-----------------3-3-3-3-----------------------------|
E-1----1-5-5-5-5--------------------------------------|

G-----------------------------------------------------|
D------3----------3-3---------------------------------|
A-5--5---5----3-3-----3-------------------------------|
E-----------------------------------------------------|

G-----------------------------------------------------|
D-----------------------------------------------------|
A-----------------3-3-3-3-----------------------------|
E-1----1-5-5-5-5--------------------------------------|

G-----------------------------------------------------|
D------3---------3---3--------------------------------|
A-5--5---5---3-3---3----------------------------------|
E----------------------------1------------------------|

Verse 1
Rhythm is played to the vocals for part (again with verse 2)
G----2-----2--------5-5-5-5-5-5----------5-5-5-5-----------2--------|
D------3-----3----3--------------3-3-3-3---------3-3-3-3-3---3------|
A-------------------------------------------------------------------|
E-------------------------------------------------------------------| x2

G---5-5-5-5-5-------------2---------------------------|
D-3------------3-3-3-3-3-----5------------------------|
A-----------------------------------------------------|
E-----------------------------------------------------| x 3

G-2-------2--------2-------2--------2---2-3---3-5--3--|
D----3-------5--------3-------5---5-------------------|
A-----------------------------------------------------|
E-----------------------------------------------------|

[Chorus]

Verse 2

G---5-5-5---------5-5-5--------2-2-2---------2-2-2------|
D-3-------3-3---3-------3-3--3-------3-3---3-------3-3--|
A-------------------------------------------------------|
E-------------------------------------------------------| x2

G---5-5-5-5-5-------------2---------------------------|
D-3------------3-3-3-3-3-----5------------------------|
A-----------------------------------------------------|
E-----------------------------------------------------| x 3

G-2-------2--------2-------2--------2---2-3---3-5--3--|
D----3-------5--------3-------5---5-------------------|
A-----------------------------------------------------|
E-----------------------------------------------------|

[Chorus]

Bridge
G-------------------------------------------------------|
D-------------------------------------------------------|
A-1-1-----1-0-1-1--1--0---0---0-------------------------|
E-------------------------------2-3-5-------------------|

G-------------------------------------------------------|
D-----------------------7-7----5-5----------------------|
A-1-1-----1-0-1-1--1--0---------------------------------|
E----------------------------3-----3--------------------|

G-------------------------------------------------------|
D-------------------------------------------------------|
A-1-1-----1-0-1-1--1--0---0---0-------------------------|
E-------------------------------2-3-5-------------------|

G------------------------------------------------------|
D------------------------------5--3--2-----------------|
A-1-1-----1-0-1-1--1--3--3--3-----------5----5--3----3-|
E------------------------------------------------------|


Last Chorus
G-----------------------------------------------------|
D-----------------------------------------------------|
A-----------------3-3-3-3-----------------------------|
E-1----1-5-5-5-5--------------------------------------| x4 then [Chorus]

Outro

G-----------------------------------------------------|
D-----------------------------------------------------|
A---------0--1h3----------3--1------------------------|
E-1----3----------1---1---------3--1------------------| x4
Добавлено: 02.11.2013
Другие материалы по этой песне:
  • Аккорды и текст

Страница создана 02.11.2013
http://primanota.ru/big-d-and-the-kids-table/the-one-chords.htm
Привет, Гость.
Предлагаем пройти революционный курс по гитаре.
Подарок от PrimaNota.Ru, забирай!