PrimaNota.ru - самый крупный в мире бесплатный архив песенных текстов, аккордов, табулатур и нот


Big D And The Kids Table - My Girlfriends On Drugs - текст песни, таба, видео

Регистрация Запомнить меня
Войти через:  Facebook Google Twitter Vk Yandex Mail.ru

Big D And The Kids Table - My Girlfriends On Drugs - текст песни, таба, видео

Печатать
Просмотров: 127
Уроки эстрадного вокала в Санкт-Петербурге
Авторы музыки: Big D and the Kids Table

Big D And The Kids Table--My Girlfriend's On Drugs
Tabbed by: Tyler Swetmon

First ever tab, sorry if it sucks.

| x   = Palm Muted|
| >   = Pick Slide|
| ~   = Let it ring for a sec.|


-----------------------------------------------------------------------|
-----------------------------------------------------------------------|
-----------------------------------------------------------------------|
-----------------------------------------------------------------------|
-33xxxxx333xxxxx333xxxxx>>>>>>>33xxxxx333xxxxx333-3-3-3-3-3-3----------|
-33xxxxx333xxxxx333xxxxx>>>>>>>33xxxxx333xxxxx333-3-3-3-3-3-3----------|

-------------------------------------|
-------------------------------------|
-------------------------------------|
5-5-5-5-7-7-7-7-9-9-9-9-10-10-10-10--|      [x3]
5-5-5-5-7-7-7-7-9-9-9-9-10-10-10-10--|
3-3-3-3-5-5-5-5-7-7-7-7--8--8--8--8--|

------------------------------------|
------------------------------------|
------------------------------------|
10-10-10-10-10-10-10-10-5-5-5-5-5---|
10-10-10-10-10-10-10-10-5-5-5-5-5---|
-8--8--8--8--8--8--8--8-3-3-3-3-3---|

-----------------------------|
-----------------------------|
----5-5--7-7-------5-4-2-----|
-5--5-5--7-7--7-7--5-4-2-----|         [x4]
-5--3-3--5-5--7-7--3-2-0-----|
-3------------5-5------------|

[Ska; Only play the upstrokes, with muted downstrokes]

---------------------------------------------------|
3--3--3--3--5--5--5--5--7--7~--7--7--5--5--7--7----|
2--2--2--2--4--4--4--4--6--6~--6--6--4--4--6--6----|
2--2--2--2--4--4--4--4--6--6~--6--6--4--4--6--6----|           [x2]
---------------------------------------------------|
---------------------------------------------------|

--------------------------------------------------------|
3-3-3--4-4-4--5--5--5--5--7--7~--7--7--5--5--7--7-------|
2-2-2--2-2-2--4--4--4--4--6--6~--6--6--4--4--6--6-------|
2-2-2--2-2-2--4--4--4--4--6--6~--6--6--4--4--6--6-------|    [x2]
--------------------------------------------------------|
--------------------------------------------------------|

-----------------------------|
-----------------------------|
----5-5--7-7-------5-4-2-----|
-5--5-5--7-7--7-7--5-4-2-----|         [x4]
-5--3-3--5-5--7-7--3-2-0-----|
-3------------5-5------------|

-----------------------------------------------------------------------|
-----------------------------------------------------------------------|
-----------------------------------------------------------------------|
-----------------------------------------------------------------------|
-33xxxxx333xxxxx333xxxxx>>>>>>>33xxxxx333xxxxx333-3-3-3-3-3-3----------|
-33xxxxx333xxxxx333xxxxx>>>>>>>33xxxxx333xxxxx333-3-3-3-3-3-3----------|

-------------------------------------|
-------------------------------------|
-------------------------------------|
5-5-5-5-7-7-7-7-9-9-9-9-10-10-10-10--|      [x3]
5-5-5-5-7-7-7-7-9-9-9-9-10-10-10-10--|
3-3-3-3-5-5-5-5-7-7-7-7--8--8--8--8--|

------------------------------------|
------------------------------------|
------------------------------------|
10-10-10-10-10-10-10-10-5-5-5-5-5---|
10-10-10-10-10-10-10-10-5-5-5-5-5---|
-8--8--8--8--8--8--8--8-3-3-3-3-3---|

-----------------------------|
-----------------------------|
----5-5--7-7-------5-4-2-----|
-5--5-5--7-7--7-7--5-4-2-----|         [x4]
-5--3-3--5-5--7-7--3-2-0-----|
-3------------5-5------------|


[Ska]

--------------------------------------------------|
3--3--3--3--5--5--5--5--7--7~--7--7--5--5--7--7---|
2--2--2--2--4--4--4--4--6--6~--6--6--4--4--6--6---|
2--2--2--2--4--4--4--4--6--6~--6--6--4--4--6--6---|         [x2]
--------------------------------------------------|
--------------------------------------------------|

---------------------------------------------------|
3-3-3--4-4-4--5--5--5--5--7--7~--7--7--5--5--7--7--|
2-2-2--2-2-2--4--4--4--4--6--6~--6--6--4--4--6--6--|
2-2-2--2-2-2--4--4--4--4--6--6~--6--6--4--4--6--6--|
---------------------------------------------------|
---------------------------------------------------|


----------------------------------------|
3-3-3--4-4-4--5--5--5--5--7--7~--7-7-5--|
2-2-2--2-2-2--4--4--4--4--6--6~--6-6-4--|   (I'm A Daisy!)
2-2-2--2-2-2--4--4--4--4--6--6~--6-6-4--|
----------------------------------------|
----------------------------------------|

-----------------------------|
-----------------------------|
----5-5--7-7-------5-4-2-----|
-5--5-5--7-7--7-7--5-4-2-----|         [x4]
-5--3-3--5-5--7-7--3-2-0-----|
-3------------5-5------------|

-----------------------------------------------------------------------|
-----------------------------------------------------------------------|
-----------------------------------------------------------------------|
-----------------------------------------------------------------------|
-33xxxxx333xxxxx333xxxxx>>>>>>>33xxxxx333xxxxx333-3-3-3-3-3-3----------|
-33xxxxx333xxxxx333xxxxx>>>>>>>33xxxxx333xxxxx333-3-3-3-3-3-3----------|

-------------------------------------|
-------------------------------------|
-------------------------------------|
5-5-5-5-7-7-7-7-9-9-9-9-10-10-10-10--|      [x3]
5-5-5-5-7-7-7-7-9-9-9-9-10-10-10-10--|
3-3-3-3-5-5-5-5-7-7-7-7--8--8--8--8--|

------------------------------------|
------------------------------------|
------------------------------------|
10-10-10-10-10-10-10-10-5-5-5-5-5---|
10-10-10-10-10-10-10-10-5-5-5-5-5---|
-8--8--8--8--8--8--8--8-3-3-3-3-3---|

-------------------------------------|
-------------------------------------|
-------------------------------------|
5-5-5-5-7-7-7-7-9-9-9-9-10-10-10-10--|      [x3]
5-5-5-5-7-7-7-7-9-9-9-9-10-10-10-10--|
3-3-3-3-5-5-5-5-7-7-7-7--8--8--8--8--|

------------------------------------|
------------------------------------|
------------------------------------|
10-10-10-10-10-10-10-10-5-5-5-5-5---|
10-10-10-10-10-10-10-10-5-5-5-5-5---|
-8--8--8--8--8--8--8--8-3-3-3-3-3---|

[Crazy part is pretty much just palm muted strumming.]




-------------------------------------|
-------------------------------------|
-------------------------------------|
5-5-5-5-7-7-7-7-9-9-9-9-10-10-10-10--|      [x3]
5-5-5-5-7-7-7-7-9-9-9-9-10-10-10-10--|
3-3-3-3-5-5-5-5-7-7-7-7--8--8--8--8--|

------------------------------------------------------------|
------------------------------------------------------------|
------------------------------------------------------------|
10-10-10-10-10-10-10-10-10-10-10-10-10-10-10-10-5-5-5-5-5---|
10-10-10-10-10-10-10-10-10-10-10-10-10-10-10-10-5-5-5-5-5---|
-8--8--8--8--8--8--8--8--8--8--8--8--8--8--8--8-3-3-3-3-3---|
Добавлено: 24.02.2012
Другие материалы по этой песне:
  • Аккорды и текст

Страница создана 24.02.2012
http://primanota.ru/big-d-and-the-kids-table/my-girlfriends-on-drugs-chords.htm
Привет, Гость.
Предлагаем пройти революционный курс по гитаре.
Подарок от PrimaNota.Ru, забирай!