PrimaNota.ru - самый крупный в мире бесплатный архив песенных текстов, аккордов, табулатур и нот


Big D And The Kids Table - Halfway Home - таба, видео

Регистрация Запомнить меня
Войти через:  Facebook Google Twitter Vk Yandex Mail.ru

Big D And The Kids Table - Halfway Home - таба, видео

Печатать
Просмотров: 125
-----------------------------------------------------------------------------
               Halfway Home - Big D And The Kids Table
                         Noise Complaint - EP
-----------------------------------------------------------------------------

Tabbed by: Panji Brotoisworo
Email: panji66(AT)hotmail.com (Replace the 'at')

E-mail me for comments or PM me on my UG Profile - "Esparko"

Legend

================
| /  slide up
| \  slide down
| b  Bend the string
| h  hammer-on
| p  pull-off
| ~  vibrato
| x  Mute note
================

I'll just be writing out the chords that they use in the song, the 
timing in this song isn't complicated and should be easy 
to figure out when they do chord changes.

You generally only want to strum the treble (e,G,B) strings for 
the upstroke in ska, not the entire barre, but I'll tab out barres 
for the sake of alternatives.

The chord names will be written under the tab. If you know alternative
fingerings.

I'll only be supplying the chords, writing out the strumming pattern 
is a bit complicated to write out exactly, you can just do your own thing.



Tuning: Standard E



First off, there's the intro riff which starts after the spacey keyboard stuff.



=======
Intro - Lyrics begin, "Halfway home.." (0:15)
=======


e|--10--9---2--7--3-------|
B|--10--10--3--8--3-------|
G|--11--11--4--9--4-------|
D|--12--11--4--9--5-------|
A|--12--9---2--7--5-------|
E|--10------------3-------|

D Major, F# Minor, B Minor, E Minor, G Major






=======
Verse - "So how come when you.." (0:33)
=======
You play the chords twice as long compared to the intro

e|--2--3--3--------|
B|--3--3--3--------|
G|--2--5--4--------|
D|--0--5--5--------|
A|-----3--5--------|
E|--------3--------|

D major, C major, G Major





============
Pre-Chorus - "And I don't see.." (0:57)
============
e|--0--3--2--0------|
B|--2--3--3--2------|
G|--2--4--2--2------|
D|--2--5--0--2------|
A|--0--5-----0------|
E|-----3------------|

A Major, G Major, D Major, A Major,






======
Chorus - Harmonica enters (1:07)
======

Chorus has the same chord progression as the intro


Then it goes into the verse
Then it goes into the chorus
Then into...




================
The Trumpet Solo - (2:22)
================

On the second repeat of this section, you repeat G, D, and A major again.

e|--5--2--3--2--0------|
B|--5--3--3--3--2------|
G|--6--4--4--2--2------|
D|--7--4--5--0--2------|
A|--7--2--5-----0------|
E|--5-----3------------|

A Major, B Minor, G Major, D Major, A Major




Then it goes into the Verse
Then it goes into the final chorus where there's a trumpet solo
Добавлено: 18.06.2012
Другие материалы по этой песне:
  • Аккорды и текст

Страница создана 18.06.2012
http://primanota.ru/big-d-and-the-kids-table/halfway-home-chords.htm
Привет, Гость.
Предлагаем пройти революционный курс по гитаре.
Подарок от PrimaNota.Ru, забирай!