PrimaNota.ru - самый крупный в мире бесплатный архив песенных текстов, аккордов, табулатур и нот


Big D And The Kids Table - Girls Against Drunk Bitches - текст песни, таба, видео

Регистрация Запомнить меня
Войти через:  Facebook Google Twitter Vk Yandex Mail.ru

Big D And The Kids Table - Girls Against Drunk Bitches - текст песни, таба, видео

Печатать
Просмотров: 144
Уроки эстрадного вокала в Санкт-Петербурге
Авторы музыки: Big D and the Kids Table

-------------------------------------------------------------------------------
           Girls Against Drunk Bitches - Big D And The Kids Table
-------------------------------------------------------------------------------
Tabbed by:Vtrillo627
Email:it_dies_today84@yahoo.com

Tuning:Standard



Intro:

e|--------------------------------|
B|--------------------------------|
G|--------------------------------| x3
D|--------------------------------|
A|---7-7-7--8-7--4-4-4--5-5-5-----|
E|---5-5-5--6-5--2-2-2--3-3-3-----|   

e|---------------------------------|
B|---------------------------------|
G|---------------------------------|
D|---------------------------------|
A|---7-7-7--8-7--4-4-4--5-5-5--7---|
E|---5-5-5--6-5--2-2-2--3-3-3--5---| 



Verse 1:

e|--------------------------------|
B|--------------------------------|
G|--------------------------------| x4
D|--------------------------------|
A|---7-7-7--8-7--4-4-4--5-5-5-----|
E|---5-5-5--6-5--2-2-2--3-3-3-----|   



Chorus:

e|----------------------------------------|
B|----------------------------------------|
G|----------------------------------------| x4
D|-------------7-7-7-7--------------------|
A|---9-9-9-9---5-5-5-5---7-7-7-7---9------|
E|---7-7-7-7-------------5-5-5-5---7------|



Bridge 1:

e|-------------------------------------------------------|
B|-------------------------------------------------------|
G|-------------------------------------------------------|
D|------------9--7--7-7---------------9--7--7-7--7-7-----|
A|---9-9-9-9--7--5--5-5--7---9-9-9-9--7--5--5-5--5-5-----|
E|---7-7-7-7-------------5---7-7-7-7---------------------|

e|-------------------------------------------------------------|
B|-------------------------------------------------------------|
G|-------------------------------------------------------------|
D|------------9--7--7-7---------------9-9-9-9--7-7-7-7---------|
A|---9-9-9-9--7--5--5-5--7---9-9-9-9--7-7-7-7--5-5-5-5--7------|
E|---7-7-7-7-------------5---7-7-7-7--------------------5------|



Repeat Bridge 1



Verse 2:

e|--------------------------------|
B|--------------------------------|
G|--------------------------------| x4
D|--------------------------------|
A|---7-7-7--8-7--4-4-4--5-5-5-----|
E|---5-5-5--6-5--2-2-2--3-3-3-----|   

e|--------------------------------|
B|---------palm muted-------------|
G|--------------------------------| x4
D|--------------------------------|
A|---7-7-7--8-7--4-4-4--5-5-5-----|
E|---5-5-5--6-5--2-2-2--3-3-3-----|   



Chorus:

e|----------------------------------------|
B|----------------------------------------|
G|----------------------------------------| x4
D|-------------7-7-7-7--------------------|
A|---9-9-9-9---5-5-5-5---7-7-7-7---9------|
E|---7-7-7-7-------------5-5-5-5---7------|



Bridge 2:

e|-------------------------------------------------------------------------|
B|-------------------------------------------------------------------------|
G|-----------------------------------------------pick----------------------|
D|-----------------7---------------------7-7-7---slide---------7-7-7--9----|
A|---9-------10----5--x4--10------9-9-9--5-5-5----------9-9-9--5-5-5--7----|
E|---7--x16--8--x8--------8--x4---7-7-7-----------------7-7-7--------------|

e|----------------------------------------------------------------------|
B|----------------------------------------------------------------------|
G|----------------------------------------------------------------------|
D|-----------------7---------------------7-7-7--------------7-7-7--9----|
A|---9-------10----5--x4--10------9-9-9--5-5-5-------9-9-9--5-5-5--7----|
E|---7--x16--8--x8--------8--x4---7-7-7--------------7-7-7--------------|

e|----------------------------------------------------------------------|
B|----------------------------------------------------------------------|
G|----------------------------------------------------------------------|
D|-----------------7---------------------7-7-7--------------7-7-7--9----|
A|---9-------10----5--x4--10------9-9-9--5-5-5-------9-9-9--5-5-5--7----|
E|---7--x16--8--x8--------8--x4---7-7-7--------------7-7-7--------------|

e|--------------------------------|
B|--------------------------------|
G|--------------------------------| x2
D|-----------------7--------------|
A|---9-------10----5--x4--10------|
E|---7--x16--8--x8--------8--x4---|

e|------------------------------|
B|------------------------------|
G|------------------------------|
D|------------------------------|
A|---9-----9-----7-----4--5-----|
E|---7-----7-----5-----2--3-----|



Verse 3:

e|--------------------------------|
B|--------------------------------|
G|--------------------------------| x4
D|--------------------------------|
A|---7-7-7--8-7--4-4-4--5-5-5-----|
E|---5-5-5--6-5--2-2-2--3-3-3-----| 

e|--------------------------------|
B|---------palm muted-------------|
G|--------------------------------| x4
D|--------------------------------|
A|---7-7-7--8-7--4-4-4--5-5-5-----|
E|---5-5-5--6-5--2-2-2--3-3-3-----|  



Chorus:

e|----------------------------------------|      -------| 
B|----------------------------------------|      -------|
G|----------------------------------------| x8   -------|
D|-------------7-7-7-7--------------------|      -------|
A|---9-9-9-9---5-5-5-5---7-7-7-7---9------|      ---9---|
E|---7-7-7-7-------------5-5-5-5---7------|      ---7---|





| /  slide up
| \  slide down
| h  hammer-on
| p  pull-off
| ~  vibrato
| +  harmonic
| x  Mute note
===============================================================================
Добавлено: 16.07.2012
Другие материалы по этой песне:
  • Аккорды и текст

Страница создана 19.06.2012
http://primanota.ru/big-d-and-the-kids-table/girls-against-drunk-bitches-chords.htm
Привет, Гость.
Предлагаем пройти революционный курс по гитаре.
Подарок от PrimaNota.Ru, забирай!