PrimaNota.ru - самый крупный в мире бесплатный архив песенных текстов, аккордов, табулатур и нот


Big D And The Kids Table - Deadpan Snakebite - бас-таба, видео

Регистрация Запомнить меня
Войти через:  Facebook Google Twitter Vk Yandex Mail.ru

Big D And The Kids Table - Deadpan Snakebite - бас-таба, видео

Печатать
Просмотров: 136
Уроки эстрадного вокала в Санкт-Петербурге
-------------------------------------------------------------------------------
			     Deadpan - Big D and The Kids Table
-------------------------------------------------------------------------------

Tabbed By : Eric F (Strictlyrude)
e-mail: blindpuncher@gmail.com

Tuning:EADG

Intra!/Main riff
G|------------------|------------------|----------------|--------------------|
D|------------------|------------------|-2220-----------|--------------------|
A|-----222-0-3303-0-|-----222-0-3303-0-|-----3330---023-|------222-0-3303-0--|
E|000-3-------------|000-3-------------|----------33----|000-3---------------|

Versa
G|-------------|-------------|-----------------------------------------------|
D|-------------|-------------|-----------------------------------------------|
A|--2222-----2-|----3--5-----|-----------------------------------------------|
E|0------0-0---|-5---------5-|-----------------------------------------------|

Pre-Chousa				(thrid time around is 8ths)   (End riff)
G|--------------------------------|-------------------------------------|----|
D|2-2-2-2-0-0-0-0-----------------|-22222222-00000000-------------------|----|
A|----------------3-3-3-3-2-2-2-2-|-------------------33333333-22222222-|00/7|
E|--------------------------------|-------------------------------------|----|  End on E(open)


***These are all the riffs for Deadpan. A short song, im sure you can figure out the 
order of
	the song if you know its name. Next up, Snakebite! Less riffs but harder timing.***



-------------------------------------------------------------------------------
			     Snakebite - Big D and The Kids Table
-------------------------------------------------------------------------------

Intra!
G|---------------------------------------------------------------------------|
D|---------------------------------------------------------------------------|
A|---------------------------------------------------------------------------|
E|0-0---00-------0000---00------0000---(etc, etc, its just E so figure it out|

Versa/choursa/
G|-----------|------------|--------------------------------------------------|
D|-----------|------------|--------------------------------------------------|
A|--2h3-2--2-|-2h3-2------|2h3-2----2----------------------------------------|
E|0------3---|--------3-2-|-------3---2-3-0----------------------------------|

(varations)
G|----------------|---------------|------------------------------------------|
D|----------------|---------------|------------------------------------------|
A|------2/3-2---2-|----2/3 2------|-----2/3-2---2----------------------------|
E|0-(0)-------3---|-(0)-------3-2-|-(0)-------3---3-2-0----------------------|


***Thats mostly it for Snakebite. All the song is 2 riffs that they vary and mix up when 
there not
	reprising the intro. It can be tricky at times but use your ear and figure out when each
	riff should be played. sorry :( ***

Snakebite was the harder of the two to learn. I'll admit that its more like a rough 
draft than a tab
	but i hope you can build on what i can offer. I think its better to have tabs out there 
so people
	can at least learn to play the basics of there favorite songs.

Thanks for listening and playing bass.
DFTBA



| /  slide up
| \  slide down
| h  hammer-on
| p  pull-off
| ~  vibrato
| +  harmonic
| x  Mute note
===============================================================================
Добавлено: 20.06.2012
Другие материалы по этой песне:
  • Аккорды и текст

Страница создана 20.06.2012
http://primanota.ru/big-d-and-the-kids-table/deadpan-snakebite-chords.htm
Привет, Гость.
Предлагаем пройти революционный курс по гитаре.
Подарок от PrimaNota.Ru, забирай!