PrimaNota.ru - самый крупный в мире бесплатный архив песенных текстов, аккордов, табулатур и нот


Big D And The Kids Table - Deadpan Face - бас-таба, видео

Регистрация Запомнить меня
Войти через:  Facebook Google Twitter Vk Yandex Mail.ru

Big D And The Kids Table - Deadpan Face - бас-таба, видео

Печатать
Просмотров: 152
Уроки эстрадного вокала в Санкт-Петербурге
-------------------------------------------------------------------------------
			     Deadpan Face - Big D and the Kids Table
-------------------------------------------------------------------------------

Tabbed By : Straight Dave
didn't really see a tab up for this and a few other of my favorite Big D songs 
so I figured I'd share some knowledge. This is a really simple song

Tuning: EADG

 Intro
G|---------------------------------------------------------------------------|
D|---------------------------------------------------------------------------|
A|-----2222-3333-0--------2222-3335-0---7775-3333-00023--------2222-3333-0---|
E|0000---------------0000---------------------------------0000---------------|

 Verse
G|---------------------------------------------------------------------------|
D|---------------------------------------------------------------------------|
A|---2222----2-----2-3-5-0---------------------------------------------------|
E|00------00-----------------------------------------------------------------|

 Instrumental Part (Chorus?)
G|---------------------------------------------------------------------------|
D|---------------------------------------------------------------------------|
A|7-7-7-7-5-5-5-5-3-3-3-3-2-2-2-2--------------------------------------------| x2
E|---------------------------------------------------------------------------|

G|---------------------------------------------------------------------------|
D|---------------------------------------------------------------------------|
A|77777777-55555555-33333333-22222222----------------------------------------| x2
E|---------------------------------------------------------------------------|
Добавлено: 28.02.2012
Другие материалы по этой песне:
  • Аккорды и текст

Страница создана 28.02.2012
http://primanota.ru/big-d-and-the-kids-table/deadpan-face-chords.htm
Привет, Гость.
Предлагаем пройти революционный курс по гитаре.
Подарок от PrimaNota.Ru, забирай!