PrimaNota.ru - самый крупный в мире бесплатный архив песенных текстов, аккордов, табулатур и нот


Big D And The Kids Table - Checklist - текст песни, таба, видео

Регистрация Запомнить меня
Войти через:  Facebook Google Twitter Vk Yandex Mail.ru

Big D And The Kids Table - Checklist - текст песни, таба, видео

Печатать
Просмотров: 125
-----------------------------------------------------------------------------
                        Checklist - Big D And The Kids Table
-----------------------------------------------------------------------------
Tabbed by: Vtrillo627
Email: vincenttrillo@yahoo.com

Tuning: Standard


Intro:

e|-------------------------------------------------------|
B|-------------------------------------------------------|
G|------------------------------------pick---------------|
D|---5-5------2-2------5-5------2-2---slide--------------|
A|---5-5------2-2------5-5------2-2----------------------|
E|---3-3------0-0------3-3------0-0----------------------|

e|-------------------------------------------------------------|
B|-------------------------------------------------------------|
G|--------------5-5-5-5--5------------7------------------------|
D|---2-2-2-2--2-5-5-5-5--5-2-2-2-2--2-7------------------------| x2
A|---2-2-2-2--2-3-3-3-3--3-2-2-2-2--2-5------------------------|
E|---0-0-0-0--0------------0-0-0-0--0--------------------------|




Verse:

e|---3--3--3--3--3--3--3--3----3--3--3--3--3--3--3--3-----------|
B|---3--3--3--3--3--3--3--3-5--3--3--3--3--3--3--3--3-5---------|
G|---4--4--4--4--4--4--4--4-5--4--4--4--4--4--4--4--4-5---------| Ska 
D|---5--5--5--5--5--5--5--5-5--5--5--5--5--5--5--5--5-5---------| Strokes
A|--------------------------3-------------------------3---------|
E|--------------------------------------------------------------|

e|---5--5--5--5--5--5--5--5----3--3--3--3--3--3--3--3-----------|
B|---5--5--5--5--5--5--5--5-5--3--3--3--3--3--3--3--3-----------|
G|---5--5--5--5--5--5--5--5-5--4--4--4--4--4--4--4--4-----------| Ska 
D|---7--7--7--7--7--7--7--7-5--5--5--5--5--5--5--5--5-----------| Strokes
A|--------------------------3-----------------------------------|
E|--------------------------------------------------------------|



Chorus:

e|-------------------------------------------------------------|
B|-------------------------------------------------------------|
G|--------------5-5-5-5--5------------7------------------------|
D|---2-2-2-2--2-5-5-5-5--5-2-2-2-2--2-7------------------------| x2
A|---2-2-2-2--2-3-3-3-3--3-2-2-2-2--2-5------------------------|
E|---0-0-0-0--0------------0-0-0-0--0--------------------------|



Verse:

e|---333333--3--3--3--3-3---333333--3--3--3--3-3-------------|
B|---333333--3--3--3--3-3---333333--3--3--3--3-3-------------|
G|---444444--4--4--4--4-4---444444--4--4--4--4-4-------------|
D|---555555--5--5--5--5-5---555555--5--5--5--5-5-------------|
A|---555555-----------------555555---------------------------|
E|---333333-----------------333333---------------------------|

e|---555555--5--5--5--5-5---333333--3--3--3--3-3-------------|
B|---555555--5--5--5--5-5---333333--3--3--3--3-3-------------|
G|---555555--5--5--5--5-5---444444--4--4--4--4-4-------------|
D|---777777--7--7--7--7-7---555555--5--5--5--5-5-------------|
A|---777777-----------------555555---------------------------|
E|---555555-----------------333333---------------------------|



Chorus:

e|-------------------------------------------------------------|
B|-------------------------------------------------------------|
G|--------------5-5-5-5--5------------7------------------------|
D|---2-2-2-2--2-5-5-5-5--5-2-2-2-2--2-7------------------------| x2
A|---2-2-2-2--2-3-3-3-3--3-2-2-2-2--2-5------------------------|
E|---0-0-0-0--0------------0-0-0-0--0--------------------------|



Bridge:

e|-------------------------------------------------------|
B|-------------------------------------------------------|
G|-------------------------------------------------------|
D|---5-5------2-2------5-5------2-2----------------------| x2
A|---5-5------2-2------5-5------2-2----------------------|
E|---3-3------0-0------3-3------0-0----------------------|

e|---------------------------|
B|---------------------------|    twice by itself
G|---------------------------|    twice w/ guitar 2
D|---5---5---------2---2-----| x4
A|---5---5---------2---2-----|
E|---3---3---------0---0-----|

Guitar 2
e|-----------------------------------------------------------------|
B|-----------------------------------------------------------------|
G|-----------------------------------------------------------------|
D|-----------------------------------------------------------------| x4
A|---5-55-5-55-5-5--5-55-5-55-5-5--2-22-2-22-2-2--2-22-2-22-2-2----|
E|---3-33-3-33-3-3--3-33-3-33-3-3--0-00-0-00-0-0--0-00-0-00-0-0----|
       pm   pm   pm   pm   pm   pm   pm   pm   pm   pm   pm   pm


Outro:

e|----------------------------|
B|----------------------------|
G|----------------------------|
D|---5----------2-------------| x4
A|---5---x16----2---x16-------|
E|---3----------0-------------|

e|-----------------------------------------|   ----------|     ------|
B|----------------------------5-x8---------|   ----------|     ---5--|
G|-----------------------------------------|   ----------|     ------| x16         
A|---5--55---5-5--55---5-2-----------------|   ---5555---|     ------|
E|---3--33---3-3--33---3-0-----------------|   ---3333---|     ------|
        pm  pm    pm  pm


e|--------------------------------------------|
B|--------------------------------------------|
G|--------------------------------------------|
D|---5------2------5------2------5------------| 
A|---5------2------5------2------5------------|
E|---3------0------3------0------3------------|




************************************

| /   slide up
| \   slide down
| h   hammer-on
| p   pull-off
| ~   vibrato
| +   harmonic
| x   Mute note
| b   Bend
| pb  Pre-bend
| br  Bend release
| pbr Pre-bend release
| brb Bend release bend

************************************
Добавлено: 14.06.2012
Другие материалы по этой песне:
  • Аккорды и текст

Страница создана 22.04.2012
http://primanota.ru/big-d-and-the-kids-table/checklist-chords.htm
Привет, Гость.
Предлагаем пройти революционный курс по гитаре.
Подарок от PrimaNota.Ru, забирай!