PrimaNota.ru - самый крупный в мире бесплатный архив песенных текстов, аккордов, табулатур и нот


Big D And The Kids Table - Bender - текст песни, бас-таба, видео

Регистрация Запомнить меня
Войти через:  Facebook Google Twitter Vk Yandex Mail.ru

Big D And The Kids Table - Bender - текст песни, бас-таба, видео

Печатать
Просмотров: 104
Авторы музыки: Big D and the Kids Table

Each dash is one sixteenth note. The rythyms are notated on the top of each measure. 
h: Hammer on
\: Slide Down


          3   4    
G|----------------|
D|----------------|
A|----------------|
E|--------1---2---|

Section A: I'm going on a bender...

  1     + 3 + 4    1     + 3 + 4    1     + 3 + 4    1     + 3 + 4    
G|----------------|----------------|----------------|----------------|
D|----------------|----------------|----------------|----------------|
A|------------2---|------------2---|------------2---|----------2-5---|
E|3-----3-3-3-----|3-----3-3-3-----|3-----3-3-3-----|3-----3-3-------|

  1     + 3     +  1     + 3 + 4    1     + 3 + 4    1e     a3   4    
G|----------------|----------------|----------------|----------------|
D|----------------|----------------|----------------|----------------|
A|5-----5-5-------|5-----5-5-5-----|------------2---|----------------|
E|--------------5-|------------5---|3-----3-3-3-----|33-----31---2---|

  1     + 3 + 4    1     + 3 + 4    1     + 3 + 4    1     + 3 + 4    
G|----------------|----------------|----------------|----------------|
D|----------------|----------------|----------------|----------------|
A|------------2---|------------2---|------------2---|----------2-5---|
E|3-----3-3-3-----|3-----3-3-3-----|3-----3-3-3-----|3-----3-3-------|

  1     + 3     +  1     + 3 + 4    1     + 3 + 4    1e     a3   4    
G|----------------|----------------|----------------|----------------|
D|----------------|----------------|----------------|----------------|
A|5-----5-5-------|5-----5-5-5-----|------------2---|----------------|
E|--------------5-|------------5---|3-----3-3-3-----|33-----31---2---|

Section B: She says...

  1     + 3   4 +  1   2     + 4 +    +   + 3   4    1 + 2 + 3 + 4 +  
G|----------------|----------------|----------------|----------------|
D|----------------|----------------|----------------|----------------|
A|------------3-5-|3---3-----2-2-2-|--3---3---------|3h5-5-5-5-3-----|
E|3-----3-5-------|----------------|--------5---5---|------------5-3-|

  1   2   3   4 +  1   2     + 4 +    +   + 3   4    1 + 2 + 3 + 4 +  
G|----------------|----------------|----------------|----------------|
D|----------------|----------------|----------------|----------------|
A|------------3-5-|3---3-----2-2-2-|--3---3---------|3h5-5-5-5-3-----|
E|3---3---5-------|----------------|--------5---5---|------------5-3-|

  1   2   3   4 +  1   2     + 4 +    +   + 3   4    1 + 2 + 3 + 4    
G|----------------|----------------|----------------|----------------|
D|----------------|----------------|----------------|----------------|
A|------------3-5-|3---3-----2-2-2-|--3---3---------|3h5-5-5-5-3-----|
E|3---3---5-------|----------------|--------5---5---|------------5---|

Section C: And with his hands in the air...

      2 + 3   4 +  1 + 2   3          + 2 + 3   4    1 + 2   3 + 4    
G|----------------|----------------|----------------|----------------|
D|----------------|----------------|----------------|2-2-2---0-0-0---|
A|----3-3-----3-3-|5-5-5-----------|--0-2-0-2---0---|----------------|
E|--------3-------|--------5\------|----------------|----------------|

  1   2 + 3   4 +  1   2   3   4    1     +     4    1     +     4    
G|----------------|----------------|------------9---|9---------------|
D|----------------|----------------|------9---------|------9---------|
A|3---3-3-----3-3-|5---5-----------|7---------------|------------7---|
E|--------3-------|--------5---0---|----------------|----------------|

  1   2 + 3   4 +  1 + 2   3          + 2 + 3   4    1 + 2   3 + 4    
G|----------------|----------------|----------------|----------------|
D|----------------|----------------|----------------|2-2-2---0-0-0---|
A|3---3-3-----3-3-|5-5-5-----------|--0-2-0-2---0---|----------------|
E|--------3-------|--------5\------|----------------|----------------|

  1   2 + 3   4 +  1   2     + 4 +  
G|----------------|----------------|
D|----------------|0---02----0---0-|
A|3---3-3-----3-3-|------------2---|
E|--------3-------|----------------|

Section A: I'm going on a bender...

  1     + 3 + 4    1     + 3 + 4    1     + 3 + 4    1     + 3 + 4    
G|----------------|----------------|----------------|----------------|
D|----------------|----------------|----------------|----------------|
A|------------2---|------------2---|------------2---|----------2-5---|
E|3-----3-3-3-----|3-----3-3-3-----|3-----3-3-3-----|3-----3-3-------|

  1     + 3     +  1     + 3 + 4    1     + 3 + 4    1e     a3   4    
G|----------------|----------------|----------------|----------------|
D|----------------|----------------|----------------|----------------|
A|5-----5-5-------|5-----5-5-5-----|------------2---|----------------|
E|--------------5-|------------5---|3-----3-3-3-----|33-----31---2---|

  1     + 3 + 4    1     + 3 + 4    1     + 3 + 4    1     + 3 + 4    
G|----------------|----------------|----------------|----------------|
D|----------------|----------------|----------------|----------------|
A|------------2---|------------2---|------------2---|----------2-5---|
E|3-----3-3-3-----|3-----3-3-3-----|3-----3-3-3-----|3-----3-3-------|

  1     + 3     +  1     + 3 + 4    1     + 3 + 4    1e     a3   4    
G|----------------|----------------|----------------|----------------|
D|----------------|----------------|----------------|----------------|
A|5-----5-5-------|5-----5-5-5-----|------------2---|----------------|
E|--------------5-|------------5---|3-----3-3-3-----|33-----31---2---|

Section B: She says...

  1     + 3   4 +  1   2     + 4 +    +   + 3   4    1 + 2 + 3 + 4 +  
G|----------------|----------------|----------------|----------------|
D|----------------|----------------|----------------|----------------|
A|------------3-5-|3---3-----2-2-2-|--3---3---------|3h5-5-5-5-3-----|
E|3-----3-5-------|----------------|--------5---5---|------------5-3-|

  1   2   3   4 +  1   2     + 4 +    +   + 3   4    1 + 2 + 3 + 4 +  
G|----------------|----------------|----------------|----------------|
D|----------------|----------------|----------------|----------------|
A|------------3-5-|3---3-----2-2-2-|--3---3---------|3h5-5-5-5-3-----|
E|3---3---5-------|----------------|--------5---5---|------------5-3-|

  1   2   3   4 +  1   2     + 4 +    +   + 3   4    1 + 2 + 3 + 4    
G|----------------|----------------|----------------|----------------|
D|----------------|----------------|----------------|----------------|
A|------------3-5-|3---3-----2-2-2-|--3---3---------|3h5-5-5-5-3-----|
E|3---3---5-------|----------------|--------5---5---|------------5---|

Section C: And with his hands in the air...

      2 + 3   4 +  1 + 2   3          + 2 + 3   4    1 + 2   3 + 4    
G|----------------|----------------|----------------|----------------|
D|----------------|----------------|----------------|2-2-2---0-0-0---|
A|----3-3-----3-3-|5-5-5-----------|--0-2-0-2---0---|----------------|
E|--------3-------|--------5\------|----------------|----------------|

  1   2 + 3   4 +  1   2   3   4    1     +     4    1     +     4    
G|----------------|----------------|------------9---|9---------------|
D|----------------|----------------|------9---------|------9---------|
A|3---3-3-----3-3-|5---5-----------|7---------------|------------7---|
E|--------3-------|--------5---0---|----------------|----------------|

  1   2 + 3   4 +  1 + 2   3          + 2 + 3   4    1 + 2   3 + 4    
G|----------------|----------------|----------------|----------------|
D|----------------|----------------|----------------|2-2-2---0-0-0---|
A|3---3-3-----3-3-|5-5-5-----------|--0-2-0-2---0---|----------------|
E|--------3-------|--------5\------|----------------|----------------|

  1   2 + 3   4 +  1   2     + 4 +  
G|----------------|----------------|
D|----------------|0---02----0---0-|
A|3---3-3-----3-3-|------------2---|
E|--------3-------|----------------|

Transition bars

  1     + 3 + 4    1     + 3 + 4    
G|----------------|----------------|
D|----------------|----------------|
A|------------2---|------------2---|
E|3-----3-3-3-----|3-----3-3-3-----|

Section C: Solo

      2 + 3   4 +  1 + 2   3          + 2 + 3   4    1 + 2   3 + 4    
G|----------------|----------------|----------------|----------------|
D|----------------|----------------|----------------|2-2-2---0-0-0---|
A|----3-3-----3-3-|5-5-5-----------|--0-2-0-2---0---|----------------|
E|--------3-------|--------5\------|----------------|----------------|

  1   2 + 3   4 +  1   2   3   4    1     +     4    1     +     4    
G|----------------|----------------|------------9---|9---------------|
D|----------------|----------------|------9---------|------9---------|
A|3---3-3-----3-3-|5---5-----------|7---------------|------------7---|
E|--------3-------|--------5---0---|----------------|----------------|

  1   2 + 3   4 +  1 + 2   3          + 2 + 3   4    1 + 2   3 + 4    
G|----------------|----------------|----------------|----------------|
D|----------------|----------------|----------------|2-2-2---0-0-0---|
A|3---3-3-----3-3-|5-5-5-----------|--0-2-0-2---0---|----------------|
E|--------3-------|--------5\------|----------------|----------------|

  1   2 + 3   4 +  1   2     + 4 +  
G|----------------|----------------|
D|----------------|0---02----0---0-|
A|3---3-3-----3-3-|------------2---|
E|--------3-------|----------------|


Section B: We know...

  1     + 3   4 +  1   2     + 4 +    +   + 3   4    1 + 2 + 3 + 4 +  
G|----------------|----------------|----------------|----------------|
D|----------------|----------------|----------------|----------------|
A|------------3-5-|3---3-----2-2-2-|--3---3---------|3h5-5-5-5-3-----|
E|3-----3-5-------|----------------|--------5---5---|------------5-3-|

  1   2   3   4 +  1   2     + 4 +    +   + 3   4    1 + 2 + 3 + 4 +        Rest
G|----------------|----------------|----------------|----------------|----------------|
D|----------------|----------------|----------------|----------------|----------------|
A|------------3-5-|3---3-----2-2-2-|--3---3---------|3h5-5-5-5-5-5-5\|----------------|
E|3---3---5-------|----------------|--------5---5---|----------------|----------------|

Section D: With nothing...

  1   2   3 + 4 +  1   2     + 4 +    + 2   3 + 4 +  1   2     + 4 +  
G|----------------|----------------|----------------|----------------|
D|--------------0-|----------------|--------------0-|----------------|
A|--------0-0-2---|2---2-----0-0---|--------0-0-2---|2---2-----0-0---|
E|3---3-----------|--------------3-|--3-3-----------|--------------3-|

    + 2   3 + 4 +  1   2     + 4 +    + 2   3 + 4 +  1   2   3   4    
G|----------------|----------------|----------------|----------------|
D|--------------0-|----------------|--------------0-|----------------|
A|--------0-0-2---|2---2-----0-0---|--------0-0-2---|2---2-----------|
E|--3-3-----------|--------------3-|--3-3-----------|--------1---2---|

Section A: I'm going on a bender...

  1     + 3 + 4    1     + 3 + 4    1     + 3 + 4    1     + 3 + 4    
G|----------------|----------------|----------------|----------------|
D|----------------|----------------|----------------|----------------|
A|------------2---|------------2---|------------2---|----------2-5---|
E|3-----3-3-3-----|3-----3-3-3-----|3-----3-3-3-----|3-----3-3-------|

  1     + 3     +  1     + 3 + 4    1     + 3 + 4    1e     a3   4    
G|----------------|----------------|----------------|----------------|
D|----------------|----------------|----------------|----------------|
A|5-----5-5-------|5-----5-5-5-----|------------2---|----------------|
E|--------------5-|------------5---|3-----3-3-3-----|33-----31---2---|

  1     + 3 + 4    1     + 3 + 4    1     + 3 + 4    1     + 3 + 4    
G|----------------|----------------|----------------|----------------|
D|----------------|----------------|----------------|----------------|
A|------------2---|------------2---|------------2---|----------2-5---|
E|3-----3-3-3-----|3-----3-3-3-----|3-----3-3-3-----|3-----3-3-------|

  1     + 3     +  1     + 3 + 4    1     + 3 + 4    1   2   ShagCarpet
G|----------------|----------------|----------------|----------------|
D|----------------|----------------|----------------|----------------|
A|5-----5-5-------|5-----5-5-5-----|------------2---|--------5-------|
E|--------------5-|------------5---|3-----3-3-3-----|------------3---|
Добавлено: 28.05.2012
Другие материалы по этой песне:
  • Аккорды и текст

Страница создана 28.05.2012
http://primanota.ru/big-d-and-the-kids-table/bender-chords.htm
Привет, Гость.
Предлагаем пройти революционный курс по гитаре.
Подарок от PrimaNota.Ru, забирай!