PrimaNota.ru - самый крупный в мире бесплатный архив песенных текстов, аккордов, табулатур и нот


Big Country - Lost Patrol - текст песни, таба, видео

Регистрация Запомнить меня
Войти через:  Facebook Google Twitter Vk Yandex Mail.ru

Big Country - Lost Patrol - текст песни, таба, видео

Печатать
Просмотров: 112
Авторы музыки: Mark Brzezicki, Tony Butler, Bruce Watson, Stuart Adamson
Авторы текста: Stuart Adamson
Lost Patrol by Big Country from the album "The Crossing"

Tabbed by Colin Dawson, colin_g_dawson@hotmail.com, July 2002.

This is one of the simpler Big Country songs to play live. It has some=20
interesting E-Bow parts and a great solo. The E-Bow part during the =
verse
is easier using a volume pedal - it saves the hassle of trying to put=20
down the E-Bow and pick up a plectrum. Stuart uses pitch shifting at=20
various parts of the song.

Intoduction
E-Bow=20
  Dm   C   Dm          C     Am     G  Am             G      Am       G
E|--------|-----------------|---------|---------------------|-----------|=
B|--------|-----------------|---------|---------------------|-----------|=
G|7------9|10--12--14--17s19|14-------|--12-14-12h14p12-9h10|12-------14|=
D|--------|-----------------|---------|---------------------|-----------|=
A|--------|-----------------|---------|---------------------|-----------|=
E|--------|-----------------|---------|---------------------|-----------|=


E-Bow=20
  Am       G  Dm        C   Dm     C  Dm    C  Dm           C    Am     = G
E|-----------|-------------|--------||--------|-----------------|--------=
B|-----------|-------------|--------||--------|-----------------|--------=
G|17-----10-9|10--7---5h7p5|2-------||7------9|10--12--14--17s19|14------=
D|-----------|-------------|--------||--------|-----------------|--------=
A|-----------|-------------|--------||--------|-----------------|--------=
E|-----------|-------------|--------||--------|-----------------|--------=

E-Bow=20
  Am               G    Am      G  Am        G  Dm            C  Dm     = C
E|---------------------|----------|------------|----------------|--------=
B|---------------------|----------|------------|----------------|--------=
G|--12-14-12h14p12-9h10|12------14|17-----17-19|21-19---17-21p17|19------=
D|---------------------|----------|------------|----------------|--------=
A|---------------------|----------|------------|----------------|--------=
E|---------------------|----------|------------|----------------|--------=

E-Bow=20
  Dm   C Dm    C Am    G  Am  G Am   G  Am     G  Dm          C   Dm    = C
E|------|-------|--------|-----|-------|---------|---------------|-------=
B|------|-------|--------|-----|-------|---------|---------------|-------=
G|19----|19---21|19-17---|17---|17-----|17--17-19|21-19--17-21p17|19-----=
D|------|-------|--------|-----|-------|---------|---------------|-------=
A|------|-------|--------|-----|-------|---------|---------------|-------=
E|------|-------|--------|-----|-------|---------|---------------|-------=

  Dm      C    Dm      C  Am       G   Am       G    Am      G
E|------------|----------|------------|-------------|-----------|
B|------------|----------|------------|-------------|-----------|
G|7-------55h7|7-------00|5s2-----00h2|2--------00h2|2------00h2|
D|7-------55h7|7-------00|5s2-----00h2|2--------00h2|2------00h2|
A|------------|----------|------------|-------------|-----------|
E|------------|----------|------------|-------------|-----------|
  Yeah     Ya =20

  Am       D   Dm            C   Dm                   C   =20
E|------------|-----------------|-----------------------|
B|------------|-----------------|-----------------------|
G|2-------55h7|7----999-10-10-10|12-12-12--10-10-10-9-10|
D|2-------55h7|7----999-10-10-10|12-12-12--10-10-10-9-10|
A|------------|-----------------|-----------------------|
E|------------|-----------------|-----------------------|
  Yeah     Ya  Yo

  Dm       C   Dm      C  Am        G  Am        G   Am      G
E|------------|----------|------------|-------------|-----------|
B|------------|----------|------------|-------------|-----------|
G|7-------55h7|7-------00|5s2-----00h2|2--------00h2|2------00h2|
D|7-------55h7|7-------00|5s2-----00h2|2--------00h2|2------00h2|
A|------------|----------|------------|-------------|-----------|
E|------------|----------|------------|-------------|-----------|
  Yeah    =20

  Am        D  Dm            C   Dm                   C
E|------------|-----------------|------------------------|
B|------------|-----------------|------------------------|
G|2-------55h7|7----999-10-10-10|12-12-12--14-14-14-17-14|
D|2-------55h7|7----999-10-10-10|12-12-12--14-14-14-17-15|
A|------------|-----------------|------------------------|
E|------------|-----------------|------------------------|
  Yeah    =20

Verse 1
E-Bow (-1 octave) --------------->=20
                                          F       F       F(half)
E|--------|---------|--------|----------|----------------|------|
B|--------|---------|--------|----------|----------------|------|
G|--------|---------|--------|-------14h|17---14h17---14h|17---9|
D|--------|---------|--------|------15--|----15------15--|------|
A|8-7-5-3-|10-5-3---|8-7-5-3-|5-3-5-----|----------------|------|
E|--------|---------|--------|----------|----------------|------|
We lay the=20


  C         C        C         C    Dm         Dm   =20
E|----------------|-----------------|-------------------|
B|----------------|-----------------|-------------------|
G|--9h12-----9h12-|--9h12----9h12--9|--10h14----10h14--9|
D|10-------10-----|10------10-------|12-------12--------|
A|----------------|-----------------|-------------------|
E|----------------|-----------------|-------------------|
                               There is no=20

  C          Dm      Dm (half)            F
E|------------------|--------------------|-------------|
B|------------------|--------------------|-------10-13-|
G|--9h12--9--10h14--|---------9h12p9h12p9|10--10-------|
D|10-------12-------|-------10-----------|10-----------|
A|------------------|--------------------|-------------|
E|------------------|--------------------|-------------|
                                                 We save=20


Chorus
  C(sus4) C    C(sus4) C    F       F       F       F
E|13-12-13-12-|13-12-13-12-|---------------|-------------------|
B|13-13-13-13-|13-13-13-13-|---------------|-------------------|
G|12-12-12-12-|12-12-12-12-|--14h17---14h17|--14h17-15p14-14p12|
D|------------|------------|15------15-----|15-----------------|
A|------------|------------|---------------|-------------------|
E|------------|------------|---------------|-------------------|

  G            C           C        Dm           C  F (half)=20
E|------------|--------------------|---------------|1------|
B|------------|--------------------|------------555|1------|
G|12----------|10-10p9-9p7-7h9-9h10|10----------555|2------|
D|------------|--------------------|------------555|3------|
A|------------|--------------------|------------333|3------|
E|------------|--------------------|---------------|1------|


Solo 1
  Dm (half)            Dm                Dm        F        =20
E|--------------------|-----------------|---------|------------------|
B|--------------------|-----5-5-6-5h6p5-|---------|------------------|
G|--------------------|----------------7|----77775|2--2-3-5-3h5p3p2--|
D|---->12-12-12-12->12|12---------------|7---77775|3----------------3|
A|---->12-12-12-12->12|12---------------|---------|------------------|
E|--------------------|-----------------|---------|------------------|

  F          C          C             Dm     C    Dm
E|----------|----------|-------------|-----------|-----------------|
B|------333-|----------|-------------|-----------|-----------------|
G|----5-555-|--5--5--5-|-------------|-----------|--------------14 |
D|3--------7|5--5--5---|5---2-3-2h3p2|-------2---|>12-12->12-12----|
A|----------|----------|-->3---------|3--->3---3-|>12-12->12-12----|
E|----------|----------|-------------|-----------|-----------------|

  Dm               Dm        F
E|-----------------|5--------|------------------|
B|-----5-5-6-5h6p5-|---------|------------------|
G|>7--------------7|----77775|2--2-3-5-3h5p3p2--|
D|-----------------|----77775|3----------------3|
A|-----------------|---------|------------------|
E|-----------------|---------|------------------|

  F          C          C             Dm     C    Dm
E|----------|----------|-------------|-----------|------|
B|------333-|----------|-------------|-----------|------|
G|----5-555-|--5--5--5-|-------------|-----------|------|
D|3--------7|5--5--5---|5---2-3-2h3p2|-------2---|------|
A|----------|----------|-->3---------|3--->3---3-|>5----|
E|----------|----------|-------------|-----------|------|

E-Bow=20
  Dm   C   Dm          C     Am     G  Am             G      Am       G
E|--------|-----------------|---------|---------------------|-----------|=
B|--------|-----------------|---------|---------------------|-----------|=
G|7------9|10--12--14--17s19|14-------|--12-14-12h14p12-9h10|12-------14|=
D|--------|-----------------|---------|---------------------|-----------|=
A|--------|-----------------|---------|---------------------|-----------|=
E|--------|-----------------|---------|---------------------|-----------|=


E-Bow=20
  Am     G  Dm        C   Dm   C  Dm  C  Dm           C    Am     G
E|---------|-------------|------||------|-----------------|--------------=
B|---------|-------------|------||------|-----------------|--------------=
G|17---10-9|10--7---5h7p5|2-----||7----9|10--12--14--17s19|17h19p17--14-1= 7|
D|---------|-------------|------||------|-----------------|--------------=
A|---------|-------------|------||------|-----------------|--------------=
E|---------|-------------|------||------|-----------------|--------------=

E-Bow=20
  Am       G  Am        G  Am        G  Dm            C     Dm     C
E|-----------|-------------|------------|------------------|--------||
B|-----------|-------------|------------|------------------|--------||
G|14h17p14---|14h17-19-14--|17-19-14-7h9|10-9---10-9h10p9p7|7-------||
D|-----------|-------------|------------|------------------|--------||
A|-----------|-------------|------------|------------------|--------||
E|-----------|-------------|------------|------------------|--------||

E-Bow (pitch shift +1 octave)
  Dm   C Dm   C Am    G Am  G  Am   G Am      G  Dm           C   Dm   C
E|------|------|-------|------|------|----------|----------------|-------=
B|------|------|-------|------|------|----------|----------------|-------=
G|>7----|7----9|7-5----|5----9|7----9|12---12-14|16-14--12-16p12h|14-----=
D|------|------|-------|------|------|----------|----------------|-------=
A|------|------|-------|------|------|----------|----------------|-------=
E|------|------|-------|------|------|----------|----------------|-------=

  Dm      C    Dm      C  Am       G   Am       G    Am      G
E|------------|----------|------------|-------------|-----------|
B|------------|----------|------------|-------------|-----------|
G|7-------55h7|7-------00|5s2-----00h2|2--------00h2|2------00h2|
D|7-------55h7|7-------00|5s2-----00h2|2--------00h2|2------00h2|
A|------------|----------|------------|-------------|-----------|
E|------------|----------|------------|-------------|-----------|
  Yeah    =20

  Am       D   Dm            C   Dm                   C   =20
E|------------|-----------------|-----------------------|
B|------------|-----------------|-----------------------|
G|2-------55h7|7----999-10-10-10|12-12-12--10-10-10-9-10|
D|2-------55h7|7----999-10-10-10|12-12-12--10-10-10-9-10|
A|------------|-----------------|-----------------------|
E|------------|-----------------|-----------------------|
  Yeah    =20

  Dm       C   Dm      C  Am        G  Am        G   Am      G
E|------------|----------|------------|-------------|-----------|
B|------------|----------|------------|-------------|-----------|
G|7-------55h7|7-------00|5s2-----00h2|2--------00h2|2------00h2|
D|7-------55h7|7-------00|5s2-----00h2|2--------00h2|2------00h2|
A|------------|----------|------------|-------------|-----------|
E|------------|----------|------------|-------------|-----------|
  Yeah    =20

  Am        D  Dm            C   Dm                   C
E|------------|-----------------|------------------------|
B|------------|-----------------|------------------------|
G|2-------55h7|7----999-10-10-10|12-12-12--14-14-14-17-14|
D|2-------55h7|7----999-10-10-10|12-12-12--14-14-14-17-15|
A|------------|-----------------|------------------------|
E|------------|-----------------|------------------------|
  Yeah   =20

Verse 2
E-Bow (-1 octave) --------------->                                       =
   =20
E|--------|---------|--------|----------|
B|--------|---------|--------|----------|
G|--------|---------|--------|----------|
D|--------|---------|--------|----------|
A|8-7-5-3-|10-7-3---|8-7-5-3-|5-3-5-----|
E|--------|---------|--------|----------|
We can do=20

E-Bow (-1 octave) --------------->                                       =
  =20
E|--------|---------|----------|----------|
B|--------|---------|----------|----------|
G|--------|---------|----------|----------|
D|--------|---------|----------|----------|
A|8-7-5-3-|10-7-3---|12-10-8-7-|5-3-5-----|
E|--------|---------|----------|----------|
While men=20

        F       F        F(half)
E------|----------------|------|
B------|----------------|------|
G---14h|17---14h17---14h|17---9|
D--15--|----15------15--|------|
A------|----------------|------|
E------|----------------|------|
We stand=20

  C         C        C         C    Dm         Dm   =20
E|----------------|-----------------|-------------------|
B|----------------|-----------------|-------------------|
G|--9h12-----9h12-|--9h12----9h12--9|--10h14----10h14--9|
D|10-------10-----|10------10-------|12-------12--------|
A|----------------|-----------------|-------------------|
E|----------------|-----------------|-------------------|
                                   There is no=20
  C          Dm      Dm (half)            F
E|------------------|--------------------|-------------|
B|------------------|--------------------|-------10-13-|
G|--9h12--9--10h14--|---------9h12p9h12p9|10--10-------|
D|10-------12-------|-------10-----------|10-----------|
A|------------------|--------------------|-------------|
E|------------------|--------------------|-------------|
                                              We save=20


Chorus
  C(sus4) C    C(sus4) C    F       F       F       F
E|13-12-13-12-|13-12-13-12-|---------------|-------------------|
B|13-13-13-13-|13-13-13-13-|---------------|-------------------|
G|12-12-12-12-|12-12-12-12-|--14h17---14h17|--14h17-15p14-14p12|
D|------------|------------|15------15-----|15-----------------|
A|------------|------------|---------------|-------------------|
E|------------|------------|---------------|-------------------|


  G            C           C        Dm           C  F=20
E|------------|--------------------|---------------|1------------|
B|------------|--------------------|------------555|1------10-13-|
G|12----------|10-10p9-9p7-7h9-9h10|10----------555|2---10-------|
D|------------|--------------------|------------555|3------------|
A|------------|--------------------|------------333|3------------|
E|------------|--------------------|---------------|1------------|
                                                        We save=20

  C(sus4) C    C(sus4) C    F       F       F       F
E|13-12-13-12-|13-12-13-12-|---------------|-------------------|
B|13-13-13-13-|13-13-13-13-|---------------|-------------------|
G|12-12-12-12-|12-12-12-12-|--14h17---14h17|--14h17-15p14-14p12|
D|------------|------------|15------15-----|15-----------------|
A|------------|------------|---------------|-------------------|
E|------------|------------|---------------|-------------------|


  G            C           C        Dm           C  F=20
E|------------|--------------------|---------------|1------------|
B|------------|--------------------|------------555|1------------|
G|12----------|10-10p9-9p7-7h9-9h10|10----------555|2------------|
D|------------|--------------------|------------555|3------------|
A|------------|--------------------|------------333|3------------|
E|------------|--------------------|---------------|1------------|


h =3D hammer
p =3D pull
s =3D slide
> =3D slide up
  =3D slide down
     
Добавлено: 25.11.2013
Другие материалы по этой песне:
  • Аккорды и текст

Страница создана 04.04.2012
http://primanota.ru/big-country/lost-patrol-chords.htm
Привет, Гость.
Предлагаем пройти революционный курс по гитаре.
Подарок от PrimaNota.Ru, забирай!