PrimaNota.ru - самый крупный в мире бесплатный архив песенных текстов, аккордов, табулатур и нот


Big Country - Harvest Home - текст песни, таба, видео

Регистрация Запомнить меня
Войти через:  Facebook Google Twitter Vk Yandex Mail.ru

Big Country - Harvest Home - текст песни, таба, видео

Печатать
Просмотров: 178
Авторы музыки: Stuart Adamson
Авторы текста: Stuart Adamson
Harvest Home - Big Country from the 1983 album 2The Crossing"

Standard tuning at about 112bpm. Go for a distorted sound.

Intro
Slide into 1st note - Play this section twice

E|------------------------------------------11-12-------------------|
B|-s9-10-9-12-9-10----9-10-9----9----9-10-9-------12---9-10-9-------|
G|---------------------------11---9---------------------------11-9-9|
D|------------------------------------------------------------------|
A|------------------------------------------------------------------|
E|------------------------------------------------------------------|

Verse - play this section twice
  E5
E|----------------------------------------------------|
B|----------------------------------------------------|
G|----------------------------------------------------|
D|----------------------------------------------------|
A|----------------------------------------------------|
E|000000000000-000000000000-000000000000-000000000000-|

Then play this stanza
  B          A       E              B        A       E
E|-------------------------------------------------------------|
B|------- 10s12-9----------10s12-9--------10s12-9--------9-12-9|
G|-9---9----------11-9---9----------9---9---------11-9---------|
D|---9-----------------9--------------9------------------------|
A|-------------------------------------------------------------|
E|-------------------------------------------------------------|


Chorus section
   E                       B                          A
E|-----------------------------------------------------------------------|
B|-9----9------9-----9--12--------------------9-12-9---------------9-12-9|
G|-------------------------11---11-----11-------------9---9----9---------|
D|----9------9----9-----------9------9------9-----------7---7----9-------|
A|-----------------------------------------------------------------------|
E|-----------------------------------------------------------------------|
 
   B                            E          A          B         ~~~~~
E|-----------------------------------------------------------------------|
B|-------------------9---12-9---12--9------12---9-----12--9--------------|
G|-11----11----11-11--------------------9----------9---------11----------|
D|-----9-----9--------------------------------------------------9----9-11|
A|-----------------------------------------------------------------------|
E|-----------------------------------------------------------------------|
  
   C#                     B                    A
E|----------------9-11-12-14-16s17s19bu21bd19--17--16h17p16----------------|
B|-------9-10-12---------------------------------------------17---------17-|
G|-9-11----------------------------------------------------------16--------|
D|-------------------------------------------------------------------------|
A|-------------------------------------------------------------------------|
E|-------------------------------------------------------------------------|

Instrumental breakdown
   E
E|-------------------------------------------------------------------------|
B|-------0--0--------0-----0-----0----2p0-----0-----0-2-0-----0-------0----|
G|-1--1--1--1--1--1--1--1--1--1--1--------1---1-----------1---1-------1----|
D|-2--2--------2--2-----2-----2------------2--2--2---------2--2---2--------|
A|-------------------------------------------------------------------------|
E|-------------------------------------------------------------------------|

E|------------------------------0---4p0-----------0--0--4p0-------0-------|
B|-------0--0------2-------2--0---------0-----0-------------0-----0-------|
G|-1--1--1--1--1---1-------1--------------1---1---------------1-----------|
D|-2--2--------2---2---2---2----------------------------------------------|
A|------------------------------------------------------------------------|
E|------------------------------------------------------------------------|


E|------------------------------------------------------------------------|
B|-----------------------------------------------------------------s------|
G|--9----8----6-8-9--------------------------------------------2----------|
D|------------------9---9----------------------9--------------------------|
A|---------------------------7---7-9-7-9s11-------------------------------|
E|------------------------------------------------------------------------|

E|------------------------------------------------------------------------|
B|-s-------------------------------------------------9---7------7-9-------|
G|--9----8----6-8-9------------------------------------------9-------9---9|
D|------------------9---9-------------------------------------------------|
A|---------------------------7---7-9-7-9s11----7--------------------------|
E|------------------------------------------------------------------------|

E|------------------------------------------------------------------------|
B|--------------------------9----7-----7-9--------------------------------|
G|--------------------9--------------9------9---9-------------------------|
D|---9---9-11-9-9h11--------------------------------9---9-11-9-9s14--9----|
A|------------------------------------------------------------------------|
E|------------------------------------------------------------------------|

Aother great song from one of the best bands ever. Enjoy...taff
Добавлено: 20.03.2012
Другие материалы по этой песне:
  • Аккорды и текст

Страница создана 05.03.2012
http://primanota.ru/big-country/harvest-home-chords.htm
Привет, Гость.
Предлагаем пройти революционный курс по гитаре.
Подарок от PrimaNota.Ru, забирай!