PrimaNota.ru - самый крупный в мире бесплатный архив песенных текстов, аккордов, табулатур и нот


Big Country - Fields Of Fire - текст песни, таба, видео

Регистрация Запомнить меня
Войти через:  Facebook Google Twitter Vk Yandex Mail.ru

Big Country - Fields Of Fire - текст песни, таба, видео

Печатать
Просмотров: 222
Авторы музыки: Mark Brzezicki, Tony Butler, Bruce Watson, Stuart Adamson
Авторы текста: Stuart Adamson
Fields Of Fire

Not my tab - but as this classic song is missing i thought it should be up. So here it 
RIP SA.

Intro
Roughly play each several times
E|------------------------------|
B|------------------------------|
G|--2----------6----------9-----|
D|--0----------0----------0-----|
A|------------------------------|
E|------------------------------|

Play twice
E|---------------------------------------------------------------------------------------|
B|---------------------------------------------------------------------------------------|
G|--7-7-7-7-7-7-11-14-16-16-16-16-16-14-11-7-14-16-16-16-16-16-14-11-7-14-12-h14-p12-11--|
D|--0-0-0-0-0-0--0--0--0--0--0--0--0--0--0-0--0--0--0--0--0--0--0--0-0--0--0---0---0--0--|
A|---------------------------------------------------------------------------------------|
E|---------------------------------------------------------------------------------------|

E|------------------------------------------------------------------|
B|---------------------------12-10----------------------------------|
G|-9-11-12-12-s14-12-11-12-9-------11-9-11-p9--------9-11-11-12-14--|
D|--------------------------------------------12--12----------------|
A|------------------------------------------------------------------|
E|------------------------------------------------------------------|

E|-12-14-15-15-s17-15-14-15-14-19-17-14-12-14-p12-----|
B|------------------------------------------------15--|
G|----------------------------------------------------|
D|----------------------------------------------------|
A|----------------------------------------------------|
E|----------------------------------------------------|

Verse - Stuart
E|---------------------------------------------------------------------------------------|
B|--7-7-12-12-14-14-7----7-7-12-12-14-14-7----11-11-11-11-9-7-7----7-7-11-11-9-7-7-------|
G|--0-0--0--0--0--0-0----0-0--0--0--0--0-0-----0--0--0--0-0-0-0----0-0--0--0-0-0-0-------|
D|---------------------------------------------------------------------------------------|
A|---------------------------------------------------------------------------------------|
E|---------------------------------------------------------------------------------------|

Verse - Bruce (from 2nd verse onwards)
E|---------------------------------------------------------------------------------------|
B|------------7-10--------------7--10--------------7-10--------------7-------------------|
G|----7---9-------------7---9--------------7---9-------------7---9-----7-----------------|
D|--7---7---7---------7---7---7----------7---7---7---------7---7---7---------------------|
A|---------------------------------------------------------------------------------------|
E|---------------------------------------------------------------------------------------|


E|---------------------------------------------------------------------------------------|
B|---------------------------------------------------------------------------------------|
G|--11-11-s14-14-11-11-9-11----9-9-11-11-9-9-7------11-11-s14-14-11-11-9-11--------------|
D|---------------------------------------------7-----------------------------------------|
A|---------------------------------------------------------------------------------------|
E|---------------------------------------------------------------------------------------|
400 Miles. . .               Without a word . .     400 Miles. .

"Post chorus"
E|---------------------------------------------------------------------------------------|
B|---------------------------------------------------------------------------------------|
G|--7-7-7-9-p7-7-7-7-9-p7-7-7-7-9-p7-7-7-7-----11-11-11-14-p11-11-11-11----9-h11-11-11-11|
D|--0-0-0-0--0-0-0-0-0--0-0-0-0-0--0-0-0-0------0--0--0--0---0--0--0--0----0---0--0--0--0|
A|---------------------------------------------------------------------------------------|
E|---------------------------------------------------------------------------------------|


E|--------------------17-15-14-h15-p14-----14-h15-p14-----14-h15-p14------17-15-14h15-p14|
B|-------------------------------------15----------------------------15------------------|
G|--9-h11-11-11-11------------------------------------14---------------------------------|
D|--0---0--0--0--0-----------------------------------------------------------------------|
A|---------------------------------------------------------------------------------------|
E|---------------------------------------------------------------------------------------|


E|--14-14-h15-p14------------------------------------------------------------------------|
B|----------------15---------------------------------------------------------------------|
G|---------------------------------------------------------------------------------------|
D|---------------------------------------------------------------------------------------|
A|---------------------------------------------------------------------------------------|
E|---------------------------------------------------------------------------------------|

Middle section - play three times
E|---------------------------------------------------------------------------------------|
B|---------------------------------------------------------------------------------------|
G|--7-7-7-7-7-7-11-14-16-16-16-16-16-14-11-7-14-16-16-16-16-16-14-11-7-14-12-h14-p12-11--|
D|--0-0-0-0-0-0--0--0--0--0--0--0--0--0--0-0--0--0--0--0--0--0--0--0-0--0--0---0---0--0--|
A|---------------------------------------------------------------------------------------|
E|---------------------------------------------------------------------------------------|

E|------------------------------------------------|
B|---------------------------12-10----------------|
G|-9-11-12-12-s14-12-11-12-9-------11-9-11-p9-----|
D|--------------------------------------------12--|
A|------------------------------------------------|
E|------------------------------------------------|

E|----------------------------------------------------|
B|----------------------------------------------------|
G|-----9-11-h12-p11-9-11-9----------------------------|
D|--12---------------------12-9----9------------------|
A|------------------------------12---12-9-------------|
E|----------------------------------------10----------|


E|-12-14-15-15-s17-15-14-15-14-19-17-14-12-14-p12-----|
B|------------------------------------------------15--|
G|----------------------------------------------------|
D|----------------------------------------------------|
A|----------------------------------------------------|
E|----------------------------------------------------|

Outro repeat
E|--17-15-14-h15-p14-----14-h15-p14-----14-h15-p14------17-15-14h15-p14--14-14-h15-p14---|
B|-------------------15----------------------------15----------------------------------15|
G|----------------------------------14---------------------------------------------------|
D|---------------------------------------------------------------------------------------|
A|---------------------------------------------------------------------------------------|
E|---------------------------------------------------------------------------------------|
Добавлено: 03.04.2012
Другие материалы по этой песне:

Страница создана 23.03.2012
http://primanota.ru/big-country/fields-of-fire-chords.htm
Привет, Гость.
Предлагаем пройти революционный курс по гитаре.
Подарок от PrimaNota.Ru, забирай!