PrimaNota.ru - самый крупный в мире бесплатный архив песенных текстов, аккордов, табулатур и нот


Big Business - Grounds For Divorce - бас-таба, видео

Регистрация Запомнить меня
Войти через:  Facebook Google Twitter Vk Yandex Mail.ru

Big Business - Grounds For Divorce - бас-таба, видео

Печатать
Просмотров: 100
Авторы: Jared Warren, Coady Willis

This tab is NOT mine. It's Sepiadefekt's Guitar Pro tab in ASCII form for those 
without Guitar Pro... it's 100 percent correct. Just make sure you tune up right.  


     E    E   E   E   E   E   E   E   8x
F||------------------------------------||
C||*----------------------------------*||
G||*----------------------------------*||
C||---7s--12--12--12--12--12--12--12---||


   E   E   E   E   E   Q.      
------------------------------|
------------------------------|
--12--10--12--10--12--10------|
------------------------------|


    E    E   E   E   E   E   E   E   3x
|------------------------------------||
|*----------------------------------*||
|*----------------------------------*||
|---7s--12--12--12--12--12--12--12---||


   E   E   E   E   E   Q.      
------------------------------|
----------------------10------|
--13--12--10--12--13----------|
------------------------------|


    E    E   E   E   E   E   E   E   3x
|------------------------------------||
|*----------------------------------*||
|*----------------------------------*||
|---7s--12--12--12--12--12--12--12---||


   E   E   E   E   E   Q.      
------------------------------|
------------------------------|
--12--10--12--10--12--10------|
------------------------------|


    E    E   E   E   E   E   E   E   3x
|------------------------------------||
|*----------------------------------*||
|*----------------------------------*||
|---7s--12--12--12--12--12--12--12---||


   E   E   E   E   E   Q.      
------------------------------|
----------------------10------|
--13--12--10--12--13----------|
------------------------------|


  E  E  E  E  E  E  E  E   
--------------------------|
--------------------------|
--8-----8-----8-----8-----|
--------------------------|


  E  E  E  E  Q      E   E   
----------------------------|
----------------------------|
--8-----8-----8s----12s--8--|
----------------------------|


   E   E   E   E   E   E   E   E   
----------------------------------|
----------------------------------|
----------------------------------|
--12--11--12--11--12--11--12--11--|


   E   E   E   E   E   E   E   E   
----------------------------------|
----------------------------------|
----------------------------------|
--12--11--12--11--12--11--12--11--|


   E  E   E  E   E  E   E  E   
------------------------------|
--12-----11-----12-----14-----|
------------------------------|
------0------0------0------0--|


   E  E   E  E   E  E   E  E   
------------------------------|
--12-----15-----14-----11-----|
------------------------------|
------0------0------0------0--|


   E   E   E   E   E   E   E   E   
----------------------------------|
----------------------------------|
----------------------------------|
--12--11--12--11--12--11--12--11--|


   E   E   E   E   E   E   E   E   
----------------------------------|
----------------------------------|
----------------------------------|
--12--11--12--11--12--11--12--11--|


   E  E   E  E   E  E  E  E   
-----------------------------|
--11-----10-----11-----8-----|
-----------------------------|
------0------0------0-----0--|


   E  E   E  E   E  E   E  E   
------------------------------|
--11-----14-----15-----14-----|
------------------------------|
------0------0------0------0--|


   E   E   E   E   E   E   E   E   
----------------------------------|
----------------------------------|
----------------------------------|
--12--11--12--11--12--11--12--11--|


   E   E   E   E   E   E   E   E   
----------------------------------|
----------------------------------|
----------------------------------|
--12--11--12--11--12--11--12--11--|


   E  E   E  E   E  E   E  E   
------------------------------|
--13-----12-----13-----12-----|
------------------------------|
------0------0------0------0--|


   E  E   E  E   E  E   E  E   
------------------------------|
--15-----14-----11-----12-----|
------------------------------|
------0------0------0------0--|


    E    E   E   E   E   E   E   E   8x
|------------------------------------||
|*----------------------------------*||
|*----------------------------------*||
|---7s--12--12--12--12--12--12--12---||


   E   E   E   E   E   Q.      
------------------------------|
------------------------------|
--12--10--12--10--12--10------|
------------------------------|


    E    E   E   E   E   E   E   E   3x
|------------------------------------||
|*----------------------------------*||
|*----------------------------------*||
|---7s--12--12--12--12--12--12--12---||


   E   E   E   E   E   Q.      
------------------------------|
----------------------10------|
--13--12--10--12--13----------|
------------------------------|


    E    E   E   E   E   E   E   E   3x
|------------------------------------||
|*----------------------------------*||
|*----------------------------------*||
|---7s--12--12--12--12--12--12--12---||


   E   E   E   E   E   Q.      
------------------------------|
------------------------------|
--12--10--12--10--12--10------|
------------------------------|


    E    E   E   E   E   E   E   E   3x
|------------------------------------||
|*----------------------------------*||
|*----------------------------------*||
|---7s--12--12--12--12--12--12--12---||


   E   E   E   E   E   Q.      
------------------------------|
----------------------10------|
--13--12--10--12--13----------|
------------------------------|


  E  E  E  E  E  E  E  E   
--------------------------|
--------------------------|
--8-----8-----8-----8-----|
--------------------------|


  E  E  E  E  Q      E   E   
----------------------------|
----------------------------|
--8-----8-----8s----12s--8--|
----------------------------|


   E   E   E   E   E   E   E   E   
----------------------------------|
----------------------------------|
----------------------------------|
--12--11--12--11--12--11--12--11--|


   E   E   E   E   E   E   E   E   
----------------------------------|
----------------------------------|
----------------------------------|
--12--11--12--11--12--11--12--11--|


   E  E   E  E   E  E   E  E   
------------------------------|
--12-----11-----12-----14-----|
------------------------------|
------0------0------0------0--|


   E  E   E  E   E  E   E  E   
------------------------------|
--12-----15-----14-----11-----|
------------------------------|
------0------0------0------0--|


   E   E   E   E   E   E   E   E   
----------------------------------|
----------------------------------|
----------------------------------|
--12--11--12--11--12--11--12--11--|


   E   E   E   E   E   E   E   E   
----------------------------------|
----------------------------------|
----------------------------------|
--12--11--12--11--12--11--12--11--|


   E  E   E  E   E  E  E  E   
-----------------------------|
--11-----10-----11-----8-----|
-----------------------------|
------0------0------0-----0--|


   E  E   E  E   E  E   E  E   
------------------------------|
--11-----14-----15-----14-----|
------------------------------|
------0------0------0------0--|


   E   E   E   E   E   E   E   E   
----------------------------------|
----------------------------------|
----------------------------------|
--12--11--12--11--12--11--12--11--|


   E   E   E   E   E   E   E   E   
----------------------------------|
----------------------------------|
----------------------------------|
--12--11--12--11--12--11--12--11--|


   E  E   E  E   E  E   E  E   
------------------------------|
--13-----12-----13-----12-----|
------------------------------|
------0------0------0------0--|


   E  E   E  E   E  E   E  E   
------------------------------|
--15-----14-----11-----12-----|
------------------------------|
------0------0------0------0--|


   H.           Q      
----------------------|
----------------------|
----------------------|
--12------------7s----|


   H.           Q      
----------------------|
----------------------|
----------------------|
--12------------7s----|


   H.           Q      
----------------------|
----------------------|
----------------------|
--12------------7s----|


   H.            Q     
----------------------|
----------------------|
----------------------|
--12------------11----|


   H.             Q     
-----------------------|
-----------------------|
--12b------------------|
-----------------11----|


   H.             Q     
-----------------------|
-----------------------|
--12b------------------|
-----------------11----|


   H.            Q       H.           Q     
----------------------|--------------------|
----------------------|--------------------|
--12b------------8----|--7-----------------|
----------------------|---------------7----|


  Q    E  E  Q     Q     
------------------------|
------------------------|
------------------------|
--8----8--8--8----10----|


   Q     E   E   Q     E   E   
------------------------------|
------------------------------|
------------------------------|
--12----12--12--12----12--12--|


   Q     E   E   Q    Q     
---------------------------|
---------------------------|
----------------------7----|
--11----11--11--11---------|


  W                   Q    Q    Q.      E   
-------------------|-----------------------|
-------------------|-----------------------|
--8----------------|-------8----7------12--|
-------------------|--8--------------------|


   E   E   E   E   Q     Q     
------------------------------|
------------------------10----|
--13--12--10--12--13----------|
------------------------------|


   Q     E   E   Q    Q      
----------------------------|
----------------------------|
----------------------------|
--12----12--12--12----7s----|


   Q     E   E   Q    Q      
----------------------------|
----------------------------|
----------------------------|
--12----12--12--12----7s----|


   Q     E   E   Q    Q      
----------------------------|
----------------------------|
----------------------------|
--12----12--12--12----7s----|


   Q     E   E   Q     Q     
----------------------------|
----------------------------|
----------------------------|
--12----12--12--12----11----|


   H.             Q     
-----------------------|
-----------------------|
--12b------------------|
-----------------11----|


   H.             Q     
-----------------------|
-----------------------|
--12b------------------|
-----------------11----|


   H.            Q       H.           Q     
----------------------|--------------------|
----------------------|--------------------|
--12b------------8----|--7-----------------|
----------------------|---------------7----|


  Q    E  E  Q     Q     
------------------------|
------------------------|
------------------------|
--8----8--8--8----10----|


   Q     E   E   Q     E   E   
------------------------------|
------------------------------|
------------------------------|
--12----12--12--12----12--12--|


   Q     E   E   Q    Q     
---------------------------|
---------------------------|
----------------------7----|
--11----11--11--11---------|


  W                   Q    Q    Q.      E   
-------------------|-----------------------|
-------------------|-----------------------|
--8----------------|-------8----7------12--|
-------------------|--8--------------------|


   E   E   E   E   Q     Q     
------------------------------|
------------------10----12----|
--13--12--10--12--------------|
------------------------------|


   E   S  S  S  S  E   S  S  E   E   S  S  
------------------------------------------|
------------------------------------------|
--13--13-13-13-13-13--13-13-13--13--13-13-|
------------------------------------------|


   E   S  S  S  S  E   S  S  E   E   S  S  
------------------------------------------|
------------------------------------------|
--13--13-13-13-13-13--13-13-13--13--13-13-|
------------------------------------------|


  E  S S S S E  S S E  E  S S  
------------------------------|
------------------------------|
--8--8-8-8-8-8--8-8-8--8--8-8-|
------------------------------|


   E   S  S  S  S  E   S  S  E   E   S  S  
------------------------------------------|
------------------------------------------|
--10--10-10-10-10-10--10-10-10--10--10-10-|
------------------------------------------|


    E    E   E   E   E   E   E   E   8x
|------------------------------------||
|*----------------------------------*||
|*----------------------------------*||
|---7s--12--12--12--12--12--12--12---||


   E   E   E   E   E   Q.      
------------------------------|
------------------------------|
--12--10--12--10--12--10------|
------------------------------|


    E    E   E   E   E   E   E   E   3x
|------------------------------------||
|*----------------------------------*||
|*----------------------------------*||
|---7s--12--12--12--12--12--12--12---||


   E   E   E   E   E   Q.      
------------------------------|
----------------------10------|
--13--12--10--12--13----------|
------------------------------|


    E    E   E   E   E   E   E   E   3x
|------------------------------------||
|*----------------------------------*||
|*----------------------------------*||
|---7s--12--12--12--12--12--12--12---||


   E   E   E   E   E   Q.      
------------------------------|
------------------------------|
--12--10--12--10--12--10------|
------------------------------|


    E    E   E   E   E   E   E   E   3x
|------------------------------------||
|*----------------------------------*||
|*----------------------------------*||
|---7s--12--12--12--12--12--12--12---||


   E   E   E   E   E   Q.      
------------------------------|
----------------------10------|
--13--12--10--12--13----------|
------------------------------|


  E  E  E  E  E  E  E  E   
--------------------------|
--------------------------|
--8-----8-----8-----8-----|
--------------------------|


  E  E  E  E  Q      E   E   
----------------------------|
----------------------------|
--8-----8-----8s----12s--8--|
----------------------------|


   E   E   E   E   E   E   E   E   
----------------------------------|
----------------------------------|
----------------------------------|
--12--11--12--11--12--11--12--11--|


   E   E   E   E   E   E   E   E   
----------------------------------|
----------------------------------|
----------------------------------|
--12--11--12--11--12--11--12--11--|


   E  E   E  E   E  E   E  E   
------------------------------|
--12-----11-----12-----14-----|
------------------------------|
------0------0------0------0--|


   E  E   E  E   E  E   E  E   
------------------------------|
--12-----15-----14-----11-----|
------------------------------|
------0------0------0------0--|


   E   E   E   E   E   E   E   E   
----------------------------------|
----------------------------------|
----------------------------------|
--12--11--12--11--12--11--12--11--|


   E   E   E   E   E   E   E   E   
----------------------------------|
----------------------------------|
----------------------------------|
--12--11--12--11--12--11--12--11--|


   E  E   E  E   E  E  E  E   
-----------------------------|
--11-----10-----11-----8-----|
-----------------------------|
------0------0------0-----0--|


   E  E   E  E   E  E   E  E   
------------------------------|
--11-----14-----15-----14-----|
------------------------------|
------0------0------0------0--|


   E   E   E   E   E   E   E   E   
----------------------------------|
----------------------------------|
----------------------------------|
--12--11--12--11--12--11--12--11--|


   E   E   E   E   E   E   E   E   
----------------------------------|
----------------------------------|
----------------------------------|
--12--11--12--11--12--11--12--11--|


   E  E   E  E   E  E   E  E   
------------------------------|
--13-----12-----13-----12-----|
------------------------------|
------0------0------0------0--|


   E  E   E  E   E  E   E  E   
------------------------------|
--15-----14-----11-----12-----|
------------------------------|
------0------0------0------0--|


   H.           Q      
----------------------|
----------------------|
----------------------|
--12------------7s----|


   H.           Q      
----------------------|
----------------------|
----------------------|
--12------------7s----|


   H.           Q      
----------------------|
----------------------|
----------------------|
--12------------7s----|


   H.            Q     
----------------------|
----------------------|
----------------------|
--12------------11----|


   H.             Q     
-----------------------|
-----------------------|
--12b------------------|
-----------------11----|


   H.             Q     
-----------------------|
-----------------------|
--12b------------------|
-----------------11----|


   H.            Q       H.           Q     
----------------------|--------------------|
----------------------|--------------------|
--12b------------8----|--7-----------------|
----------------------|---------------7----|


  Q    E  E  Q     Q     
------------------------|
------------------------|
------------------------|
--8----8--8--8----10----|


   Q     E   E   Q     E   E   
------------------------------|
------------------------------|
------------------------------|
--12----12--12--12----12--12--|


   Q     E   E   Q    Q     
---------------------------|
---------------------------|
----------------------7----|
--11----11--11--11---------|


  W                   Q    Q    Q.      E   
-------------------|-----------------------|
-------------------|-----------------------|
--8----------------|-------8----7------12--|
-------------------|--8--------------------|


   E   E   E   E   Q     Q     
------------------------------|
------------------------10----|
--13--12--10--12--13----------|
------------------------------|


     Q     E   E   Q    Q      
|-----------------------------|
|*----------------------------|
|*----------------------------|
|---12----12--12--12----7s----|


   Q     E   E   Q    Q      
----------------------------|
----------------------------|
----------------------------|
--12----12--12--12----7s----|


   Q     E   E   Q    Q      
----------------------------|
----------------------------|
----------------------------|
--12----12--12--12----7s----|


   Q     E   E   Q     Q     
----------------------------|
----------------------------|
----------------------------|
--12----12--12--12----11----|


   H.             Q     
-----------------------|
-----------------------|
--12b------------------|
-----------------11----|


   H.             Q     
-----------------------|
-----------------------|
--12b------------------|
-----------------11----|


   H.            Q       H.           Q     
----------------------|--------------------|
----------------------|--------------------|
--12b------------8----|--7-----------------|
----------------------|---------------7----|


  Q    E  E  Q     Q     
------------------------|
------------------------|
------------------------|
--8----8--8--8----10----|


   Q     E   E   Q     E   E   
------------------------------|
------------------------------|
------------------------------|
--12----12--12--12----12--12--|


   Q     E   E   Q    Q     
---------------------------|
---------------------------|
----------------------7----|
--11----11--11--11---------|


  W                   Q    Q    Q.      E   
-------------------|-----------------------|
-------------------|-----------------------|
--8----------------|-------8----7------12--|
-------------------|--8--------------------|


   E   E   E   E   Q     Q     3x
-------------------------------||
------------------------10----*||
--13--12--10--12--13----------*||
-------------------------------||


  E    E   E   E   E   E   E   E   
----------------------------------|
----------------------------------|
----------------------------------|
--7s--12--12--12--12--12--12--12--|


  E    E   E   E   E   E   E   E   
----------------------------------|
----------------------------------|
----------------------------------|
--7s--12--12--12--12--12--12--12--|


  E    E   E   E   E   E   E   E   
----------------------------------|
----------------------------------|
----------------------------------|
--7s--12--12--12--12--12--12--12--|


  E    E   E   E   E   E   E   E   
----------------------------------|
----------------------------------|
----------------------------------|
--7s--12--12--12--12--12--12--12--|


  E    E   E   E   E   E   E   E   
----------------------------------|
----------------------------------|
----------------------------------|
--7s--12--12--12--12--12--12--12--|


  E    E   E   E   E   E   E   E   
----------------------------------|
----------------------------------|
----------------------------------|
--7s--12--12--12--12--12--12--12--|


  E    E   E   E   E   E   E   E   
----------------------------------|
----------------------------------|
----------------------------------|
--7s--12--12--12--12--12--12--12--|


  E    E   E   E   E   E   E   E    
----------------------------------||
----------------------------------||
----------------------------------||
--7s--12--12--12--12--12--12--12--||




Duration Legend
---------------
W - whole
H - half
Q - quarter
E - 8th
S - 16th
T - 32nd
X - 64th
. - note dotted
|-n-|  - n-tuplets


Tablature Legend
----------------
L - tied note
x - dead note
g - grace note
(n) - ghost note
> - accentuded note
NH - natural harmonic
AH - artificial harmonic
TH - tapped harmonic
SH - semi harmonic
PH - pitch harmonic
h - hammer on
p - pull off
b - bend
br - bendRelease
pb - preBend
pbr - preBendRelease
brb - bendReleaseBend
\n/ - tremolo bar dip
\n - tremolo bar dive
-/n - tremolo bar Release up
/n\ - tremolo bar inverted dip
/n - tremolo bar return
-\n - tremolo bar Release down
S - shift slide
s - legato slide
/ -  slide into from below or out of upwards
\ -  slide into from above or out of downwards
~ - vibrato
W - wide vibrato
tr - trill
TP - tremolo picking
T - tapping
S - slap
P - pop
< - fade in
^ - brush up
v - brush down
Добавлено: 22.02.2012
Вам также может быть интересно:
Другие материалы по этой песне:

Страница создана 22.02.2012
http://primanota.ru/big-business/grounds-for-divorce-chords.htm
Привет, Гость.
Предлагаем пройти революционный курс по гитаре.
Подарок от PrimaNota.Ru, забирай!