PrimaNota.ru - самый крупный в мире бесплатный архив песенных текстов, аккордов, табулатур и нот


Big Boys - Hollywood Swinging - бас-таба, видео

Регистрация Запомнить меня
Войти через:  Facebook Google Twitter Vk Yandex Mail.ru

Big Boys - Hollywood Swinging - бас-таба, видео

Печатать
Просмотров: 163
Intro
G-----------------------|
D-----------------------|
A-3---------------------|
E---------5-------3-4-5-|


Main Riff
G------------------------------------------------------------|
D--------7-5-3---5-6-7---7-5-3---------7-5-3---5-6-7---7-5-3-|
A------------------------------------------------------------|
E-0-0-0------------------------0-0-0-------------------------|


Bridge (bout the 2 minute mark, just keep strumming E and it leads into this)
G----------------------------|
D----------------------8---9-|
A---5/7---5/7---5/7--6---7---|
E-0-----0-----0--------------|


Originally by kool and the gang
Добавлено: 10.07.2015
Другие материалы по этой песне:
  • Аккорды и текст

Страница создана 10.07.2015
http://primanota.ru/big-boys/hollywood-swinging-chords.htm
Привет, Гость.
Предлагаем пройти революционный курс по гитаре.
Подарок от PrimaNota.Ru, забирай!